» » »

Welcome Princes Of Hell Bass tabs (ver.1)

Artists:  A B C D E F G H I J K L M N O P Q R S T U V W X Y Z # 

Welcome Princes Of Hell Bass tabs (ver.1)

Mercyful Fate
Rating:
0/5 (0 votes)

Hard to play? Try these video lessons and learn fast.
                -------------------------------------------------------------------------------
                   WELCOME PRINCES OF HELL - MERCYFUL FATE
-------------------------------------------------------------------------------

Most of the long notes are played from previous bar, so I tabbed them 
(fret) in the next bar

0:04 Intro
G|-----------------|-----------------|---------------------------------------|
D|-----------------|-----------------|---------------------------------------|
A|-----------0-0-0-|---------------0-|---------------------------------------|
E|-----------------|-----------------|---------------------------------------|

0:07 Main
G|-----------------|-----------------|-----------------|-----------------|---|
D|-----------------|-------------4---|-----------------|-----4-4-4-2-----|---|
A|(0)------------0-|(0)--------2---0-|(0)------------0-|(0)----------4-0-|---|
E|-----2-0-2-r-x---|-----2-0-2-------|-----2-0-2-r-x---|-----------------|---|

G|-----------------|-----------------|-----------------|-----------------|---|
D|-----------------|-------------4---|-----------------|-----------------|---|
A|(0)------------0-|(0)--------2---0-|(0)------------0-|(0)------------3-|---|
E|-----2-0-2-r-x---|-----2-0-2-------|-----2-0-2-r-x---|-----2-0-2-0-2---|---|

0:20 Bridge to verse
G|-----------------|-----------------|---------------------------------------|
D|-----------------|-----------------|---------------------------------------|
A|(3)3-3-3-3-3-3-3-|-3-3-3-3-3-3-3-7-|---------------------------------------|
E|-----------------|-----------------|---------------------------------------|

0:23 Verse
G|-----------------|-----------------|-----------------|---7h9-9-7-------|---|
D|-----------------|-----------------|---------------9-|(9)--------9-7---|---|
A|(7)7-7-5-7---7-7-|(7)7-7-5-7-5-7-7-|(7)7-7-5-7---7---|---------------7-|---|
E|-----------------|-----------------|-----------------|-----------------|---|

G|-----------------|-----------------|-----------------|-----------------|---|
D|-----------------|-----------------|-----------------|-----------------|---|
A|(7)7-7-5-7---7-7-|(7)7-7-5-7-5-7-7-|(7)7-7-5-7---7-7-|(7)7-7-5-7-5-7-3-|---|
E|-----------------|-----------------|-----------------|-----------------|---|

0:36 Chorus                                Play 10 like /10\
G|-----------------|-----------------|-----------------|-----------------|---|
D|-----------------|-----------------|---------------10|(10)-------------|---|
A|(3)3-3-3-3-3-3-3-|-3-3-3-3-3-3-3-7-|(7)7-7-7-7-7-7---|---7-7-7-7-7-7-7-|---|
E|-----------------|-----------------|-----------------|-----------------|---|

G|-----------------|-----------------|-----------------|-----------------|---|
D|---------------10|(10)-------------|-----------------|-----------------|---|
A|(7)7-7-7-7-7-7---|---7-7-7-7-7-7-5-|(5)5-5-5-5-5-5-4-|(4)4-4-4-4-4-4-0-|---|
E|-----------------|-----------------|-----------------|-----------------|---|

0:49 Main 
G|-----------------|-----------------|-----------------|-----------------|---|
D|-----------------|-------------4---|-----------------|-------------4---|---|
A|(0)------------0-|(0)--------2---0-|(0)------------0-|(0)--------2---3-|---|
E|-----2-0-2-r-x---|-----2-0-2-------|-----2-0-2-r-x---|-----2-0-2-------|---|

0:56 Bridge to verse
G|-----------------|-----------------|---------------------------------------|
D|-----------------|---------------5-|---------------------------------------|
A|(3)3-3-3-3-3-3-3-|-3-3-3-3-3-3-3---|---------------------------------------|
E|-----------------|-----------------|---------------------------------------|

0:59 Verse
G|-----------------|-----------------|-----------------|-----------------|---|
D|(5)5-------------|-----------7-9---|-----------------|-----------------|---|
A|-----7-5-7---7-7-|(7)7-7-5-7-----7-|(7)7-7-5-7---7-7-|(7)7-7-5-7-5-7-7-|---|
E|-----------------|-----------------|-----------------|-----------------|---|

G|-----------------|-----------------|-----------------|-----------------|---|
D|-----------------|-----------------|-----------------|-----------------|---|
A|(7)7-7-5-7---7-7-|(7)7-7-5-7-5-7-7-|(7)7-7-5-7---7-7-|(7)7-7-5-7-5-7-3-|---|
E|-----------------|-----------------|-----------------|-----------------|---|

1:12 Chorus                                Play 10 like /10\
G|-----------------|-----------------|-----------------|-----------------|---|
D|-----------------|-----------------|---------------10|(10)-------------|---|
A|(3)3-3-3-3-3-3-3-|-3-3-3-3-3-3-3-7-|(7)7-7-7-7-7-7---|---7-7-7-7-7-7-7-|---|
E|-----------------|-----------------|-----------------|-----------------|---|

G|-----------------|-----------------|-----------------|-----------------|---|
D|---------------10|(10)-------------|-----------------|-----------------|---|
A|(7)7-7-7-7-7-7---|---7-7-7-7-7-7-5-|(5)5-5-5-5-5-5-4-|(4)4-4-4-4-4-4-4-|---|
E|-----------------|-----------------|-----------------|-----------------|---|

1:26 Bridge 2 times
G|-----------------|-----------------|-----------------|-----------------|---|
D|-----------------|-----------------|-----------------|-----------------|---|
A|-7-7-7-7-7-7-7-7-|-7-7-7-7-7-7-7-7-|-7-7-7-7-7-7-7-7-|-7-7-7-7-7-7-7-7-|---|
E|-----------------|-----------------|-----------------|-----------------|---|

1:42 Verse 2 times
G|-----------------|-----------------|-----------------|-----------------|---|
D|-----------------|-----------------|-----------------|-7---7-9-7---9---|---|
A|-----------------|-------------5h7-|-----------------|---7-------7---7-|---|
E|-0-0-0-0-0-0-0-0-|-0-0-0-0-5h7-----|-0-0-0-0-0-0-0-0-|-----------------|---|

1:55 Solo backing
G|-----------------|-------------7-9-|-----------------|-----------------|---|
D|-----------------|---------7-9-----|-----------------|-----------------|---|
A|-7-7-7-7-7-7-7-7-|-7-7-7-7---------|-7-7-7-7-7-7-7-7-|-7-7-7-7-7-7-7-7-|---|
E|-----------------|-----------------|-----------------|-----------------|---|

G|-----------------|-----------------|-----------------|-----------------|---|
D|-----------------|-----------------|-----------------|-----------------|---|
A|-7-7-7-7-7-7-7-7-|-7-7-7-7-7-7-7-7-|-7-7-7-7-7-7-7-7-|-7-7-7-7-7-7-7-7-|---|
E|-----------------|-----------------|-----------------|-----------------|---|

2:08
G|-----------------|-----------------|---------------------------------------|
D|-----------------|-----------------|---------------------------------------|
A|-0---------------|(0)--------------|---------------------------------------|
E|-----------------|-----------------|---------------------------------------|

2:12 Solo backing 
G|-----------------|-----------------|-----------------|-----------------|---|
D|-----------------|-----------------|-----------------|-7---7-9-7---9---|---|
A|-----------------|-------------5h7-|-----------------|---7-------7---7-|---|
E|-0-0-0-0-0-0-0-0-|-0-0-0-0-5h7-----|-0-0-0-0-0-0-0-0-|-----------------|---|

G|-----------------|-----------------|-----------------|-----------------|---|
D|-----------------|-----------------|-----------------|-----------------|---|
A|-----------------|-------------5h7-|-----------------|-----------------|---|
E|-0-0-0-0-0-0-0-0-|-0-0-0-0-5h7-----|-0-0-0-0-0-0-0-0-|-0-0-0-0-0-0-0-0-|---|

2:25 Solo backing 2 times
G|-----------------|-----------------|-----------------|-----------------|---|
D|-----------------|-----------------|-----------------|-----------------|---|
A|-7-7-7-7-7-7-7-7-|-7-7-7-7-7-7-7---|-7-7-7-7-7-7-7-7-|-7-7-7-7-7-7-7---|---|
E|-----------------|---------------0-|-----------------|---------------0-|---|

2:37 Verse 2 times
G|-----------------|-----------------|-----------------|-----------------|---|
D|-----------------|-----------------|-----------------|-7---7-9-7---9---|---|
A|-----------------|-------------5h7-|-----------------|---7-------7---7-|---|
E|-0-0-0-0-0-0-0-0-|-0-0-0-0-5h7-----|-0-0-0-0-0-0-0-0-|-----------------|---|

2:51 Mini chorus
G|-----------------|-----------------|-----------------|-----------------|---|
D|-----------------|-----------------|-----------------|-----------------|---|
A|-3---3-3-3-3-3-3-|-3-3-3-3-3-3-3-3-|-5-5-5-5-5-5-5-5-|-5-5-5-----------|---|
E|-----------------|-----------------|-----------------|-----------------|---|

2:57 Bridge
G|-----------------|-----------------|-----------------|-----------------|---|
D|-------------5---|-----------------|-------------5---|-----------------|---|
A|-7-7-7-7-5-7--7--|---7-6-5-2-------|-7-7-7-7-5-7--7--|---7-6-5-2-------|---|
E|-----------------|-0---------------|-----------------|-0---------------|---|

G|-------------12--|-----------------|-------------12--|-----------------|---|
D|---------1214--14|-----------------|---------1214--14|-----------------|---|
A|-7-7-7-7---------|---7-6-5-2-------|-7-7-7-7---------|---7-6-5-2-------|---|
E|-----------------|-0---------------|-----------------|-0---------3-----|---|

3:20 Verse 2 times
G|-----------------|-----------------|-----------------|-----------------|---|
D|-----------------|-----------------|-----------------|-7---7-9-7---9---|---|
A|-----------------|-------------5h7-|-----------------|---7-------7---7-|---|
E|-0-0-0-0-0-0-0-0-|-0-0-0-0-5h7-----|-0-0-0-0-0-0-0-0-|-----------------|---|

3:34 Chorus                                Play 10 like /10\
G|-----------------|-----------------|-----------------|-----------------|---|
D|-----------------|-----------------|---------------10|(10)-------------|---|
A|-3---3-3-3-3-3-3-|-3-3-3-3-3-3-3-7-|(7)7-7-7-7-7-7---|---7-7-7-7-7-7-7-|---|
E|-----------------|-----------------|-----------------|-----------------|---|

G|-----------------|-----------------|-----------------|-----------------|---|
D|---------------10|(10)-------------|-----------------|-----------------|---|
A|(7)7-7-7-7-7-7---|---7-7-7-7-7-7-5-|(5)5-5-5-5-5-5-4-|(4)4-4-4-4-4-4-0-|---|
E|-----------------|-----------------|-----------------|-----------------|---|

3:46 Main riff
G|-----------------|-----------------|-----------------|-----------------|---|
D|-----------------|-------------4---|-----------------|-----4-4-4-2-----|---|
A|(0)------------0-|(0)--------2---0-|(0)------------0-|(0)----------4-0-|---|
E|-----2-0-2-r-x---|-----2-0-2-------|-----2-0-2-r-x---|-----------------|---|

G|-----------------|-----------------|-----------------|-----------------|---|
D|-----------------|-------------4---|---------------4-|(4)4-4-4-4-------|---|
A|(0)------------0-|(0)--------2---0-|(0)--------------|-----------------|---|
E|-----2-0-2-r-x---|-----2-0-2-------|-----2-0-2-r-x---|-----------0-1-2-|---|

| /  slide up
| \  slide down
| h  hammer-on
| r  pause
| () note from previous bar, not played
===============================================================================
            
Hard to play? Try these video lessons and learn fast. | Correct




comments powered by Disqus
↑ Back to top | Tablatures and chords are parodies/interpretations of the original songs. You may use it for private study, scholarship, research or language learning purposes only