» » »

Mercyful Fate, The Uninvited Guest Bass tabs (ver.1)

Artists:  A B C D E F G H I J K L M N O P Q R S T U V W X Y Z # 

The Uninvited Guest Bass tabs (ver.1)

Mercyful Fate Tabs
Rating:
0/5 (0 votes)
The Uninvited Guest lessons Tabs too difficult? Try these video lessons and learn fast
                standard 4 string 

E||------------------|------------------|------------------|------------------|
B||------------------|------------------|------------------|------------------|
G||------------------|------------------|------------------|------------------|
D||------------------|------------------|------------------|------------------|
A||------------------|------------------|------------------|------------------|
E||------------------|------------------|------------------|------------------|


                                                                            

                                                                               
------------------|------------------|---------------------|------------------|
------------------|------------------|---------------------|------------------|
------------------|------------------|---------------------|------------------|
------------------|------------------|---------------------|------------------|
------------------|------------------|---------------------|------------------|
------------------|------------------|----------2---1---0--|------------------|


                                                                               
------------------|------------------|---------------------|------------------|
------------------|------------------|---------------------|------------------|
------------------|------------------|---------------------|------------------|
------------------|------------------|---------------------|------------------|
------------------|------------------|---------------------|------------------|
------------------|------------------|----------0---1---2--|------------------|


                                                                               
--------------------|------------------|-------------------|------------------|
--------------------|------------------|-------------------|------------------|
--------------------|------------------|-------------------|------------------|
--------------------|------------------|-------------------|------------------|
--------------------|------------------|-------------------|------------------|
--------1----0------|------------------|------------1------|------------------|


                                                                
--------------------|------------------|-----------------------|
--------------------|------------------|-----------------------|
--------------------|------------------|-----------------------|
--------------------|------------------|-----------------------|
--------------------|------------------|-----------------------|
--------1----0------|------------------|----1--1--1--1--0------|


                                                                        
-----------------------|-----------------------|-----------------------|
-----------------------|-----------------------|-----------------------|
-----------------------|-----------------------|-----------------------|
-----------------------|-----------------------|-----------------------|
-----------------------|-----------------------|-----------------------|
----1--1--1--1--0------|----1--1--1--1--0------|----1--1--1--1--0------|


                                                                               
------------------|--------------------|------------------|-------------------|
------------------|--------------------|------------------|-------------------|
------------------|--------------------|------------------|-------------------|
------------------|--------------------|------------------|-------------------|
------------------|--------------------|------------------|-------------------|
------------------|--------1----0------|------------------|------------1------|


                                                                               
------------------|--------------------|------------------|-------------------|
------------------|--------------------|------------------|-------------------|
------------------|--------------------|------------------|-------------------|
------------------|--------------------|------------------|-------------------|
------------------|--------------------|------------------|-------------------|
------------------|--------1----0------|------------------|------------1------|


                                                                    
---------------------|------------------------|--------------------|
---------------------|------------------------|--------------------|
---------------------|------------------------|--------------------|
---------------------|------------------------|--------------------|
---------------------|------------------------|--------------------|
--1--0------------1--|----0--1--3--1--0--1----|--1--0--------------|


                                                                    
--------------------|---------------------|------------------------|
--------------------|---------------------|------------------------|
--------------------|---------------------|------------------------|
--------------------|---------------------|------------------------|
--------------------|---------------------|------------------------|
--1--------0--------|--1--0------------1--|----0--1--3--1--0--1----|


                                                                                
--------------------|--------------------|------------------|------------------|
--------------------|--------------------|------------------|------------------|
--------------------|--------------------|------------------|------------------|
--------------------|--------------------|------------------|------------------|
--------------------|--------------------|------------------|------------------|
--1--0--------------|--1--------0--------|------------------|------------------|


                                                                            
------------------|------------------|------------------|------------------|
------------------|------------------|------------------|------------------|
------------------|------------------|------------------|------------------|
------------------|------------------|------------------|------------------|
------------------|------------------|------------------|------------------|
------------------|------------------|------------------|------------------|


                                                                               
------------------|---------------------|------------------|------------------|
------------------|---------------------|------------------|------------------|
------------------|---------------------|------------------|------------------|
------------------|---------------------|------------------|------------------|
------------------|---------------------|------------------|------------------|
------------------|----------0---1---2--|------------------|------------------|


                                                                            
------------------|------------------|------------------|------------------|
------------------|------------------|------------------|------------------|
------------------|------------------|------------------|------------------|
------------------|------------------|------------------|------------------|
------------------|------------------|------------------|------------------|
------------------|------------------|------------------|------------------|


                                                                            
------------------|------------------|------------------|------------------|
------------------|------------------|------------------|------------------|
------------------|------------------|------------------|------------------|
------------------|------------------|------------------|------------------|
------------------|------------------|------------------|------------------|
------------------|------------------|------------------|------------------|


                                                                            
------------------|------------------|------------------|------------------|
------------------|------------------|------------------|------------------|
------------------|------------------|------------------|------------------|
------------------|------------------|------------------|------------------|
------------------|------------------|------------------|------------------|
------------------|------------------|------------------|------------------|


                                                                            
------------------|------------------|------------------|------------------|
------------------|------------------|------------------|------------------|
------------------|------------------|------------------|------------------|
------------------|------------------|------------------|------------------|
------------------|------------------|------------------|------------------|
------------------|------------------|------------------|------------------|


                                                                            
------------------|------------------|------------------|------------------|
------------------|------------------|------------------|------------------|
------------------|------------------|------------------|------------------|
------------------|------------------|------------------|------------------|
------------------|------------------|------------------|------------------|
------------------|------------------|------------------|------------------|


                                                                              
------------------|------------------|------------------|--------------------|
------------------|------------------|------------------|--------------------|
------------------|------------------|------------------|--------------------|
------------------|------------------|------------------|--------------------|
------------------|------------------|------------------|--------------------|
------------------|------------------|------------------|--------1----0------|


                                                                               
------------------|-------------------|------------------|--------------------|
------------------|-------------------|------------------|--------------------|
------------------|-------------------|------------------|--------------------|
------------------|-------------------|------------------|--------------------|
------------------|-------------------|------------------|--------------------|
------------------|------------1------|------------------|--------1----0------|


                                                                   
------------------|-----------------------|-----------------------|
------------------|-----------------------|-----------------------|
------------------|-----------------------|-----------------------|
------------------|-----------------------|-----------------------|
------------------|-----------------------|-----------------------|
------------------|----1--1--1--1--0------|----1--1--1--1--0------|


                                                                   
-----------------------|-----------------------|------------------|
-----------------------|-----------------------|------------------|
-----------------------|-----------------------|------------------|
-----------------------|-----------------------|------------------|
-----------------------|-----------------------|------------------|
----1--1--1--1--0------|----1--1--1--1--0------|------------------|


                                                                               
--------------------|------------------|-------------------|------------------|
--------------------|------------------|-------------------|------------------|
--------------------|------------------|-------------------|------------------|
--------------------|------------------|-------------------|------------------|
--------------------|------------------|-------------------|------------------|
--------1----0------|------------------|------------1------|------------------|


                                                                
--------------------|------------------|-----------------------|
--------------------|------------------|-----------------------|
--------------------|------------------|-----------------------|
--------------------|------------------|-----------------------|
--------------------|------------------|-----------------------|
--------1----0------|------------------|----1--1--1--1--0------|


                                                                        
-----------------------|-----------------------|-----------------------|
-----------------------|-----------------------|-----------------------|
-----------------------|-----------------------|-----------------------|
-----------------------|-----------------------|-----------------------|
-----------------------|-----------------------|-----------------------|
----1--1--1--1--0------|----1--1--1--1--0------|----1--1--1--1--0------|


                         
-----------------------||
-----------------------||
-----------------------||
-----------------------||
-----------------------||
----1--1--0--1--3------||
            
Submit corrections

comments powered by Disqus
↑ Back to top | Mercyful Fate Bass for The Uninvited Guest. Lyrics for acoustic guitar and electric guitar. Tablatures and chords are parodies/interpretations of the original songs. You may use it for private study, scholarship, research or language learning purposes only