>
 >
Overkill 1

Overkill 1 Bass Tabs

Men At Work - Overkill 1 chords, tabs, tablatures, lyrics

Guitar lessons | Add/correct | Request | Top 50 tabs Artists:  A B C D E F G H I J K L M N O P Q R S T U V W X Y Z 0-9

Overkill 1 Bass Tabs – Men At Work

CD, Sheet music, Poster

Do you like Overkill 1? Share with your friends now
Bass TabsBass Tabs v2ChordsChords v2Chords v3Chords v4Chords v5TabsTabs v2Tabs v3UkuleleUkulele v2
Intro: (I'm pretty sure the bass mimics the sax here)

G|------9-8----------------9-8-----------|
D|----------9------------------9---------|
A|------------11-----------------9-------| X 2
E|--9------------------7-----------------|

Verse:

G|-------------------------------------------------------------------|
D|---------------7-9-9-9-9-9-9-9-9-----------------------------------|
A|-7-7-7-7-7-7-9------------------\5-5-5-5-5-5-7---------------------|
E|-----------------------------------------------10-9-9-9-9-9-7-9-7--|

G|-------------------------------------------------------------------|
D|-------------------------------------------------------------------|
A|-7-7-7-7-7-7-7-7-6-6-6-6-6-6-6-6-5-5-5-5-5-5-5-5-------------------|
E|-------------------------------------------------9-9-9-9-9-7-9-7---|

G|-------------------------------------------------------------------|
D|---------------7-9-9-9-9-------------------------------------------|
A|-7-7-7-7-7-7-9-------------------5-5-5-5-5-5-7---------------------|
E|-------------------------7-7-7-7---------------10-9-9-9-9-9-7-9-7--|

G|-------------------------------------------------------------------|
D|-------------------------------------------------------------------|
A|-7-7-7-7-7-7-7-7-6-6-6-6-6-6-6-6-5-5-5-5-5-5-5-5-------------------|
E|-------------------------------------------------9-9-9-9-9-7-9-7---|

Chorus:

G|-------------------------------------------------------------------|
D|-------------------------------------------------------------------|
A|-------------------------------------------------------------------| X 2
E|-9-9-9-9-9-9-9-9-9-9-9-9-9-9-9-9-7-7-7-7-7-7-7-7-7-7-7-7-7-7-7-7---|

G|-------------------------------------------------------------------|
D|-------------------------------------------------------------------|
A|-------------------------------------------------------------------|
E|-4-4-4-4-4-4-4-4-4-4-4-4-4-4-4-4-5-5-5-5-5-5-5-5-5-5-5-5-5-5-5-5---|

G|-------------------------------------------------------------------|
D|-------------------------------------------------------------------|
A|-------------------------------------------------------------------|
E|-7-7-7-7-7-7-7-7-7-7-7-7-7-7-9-10----------------------------------|

[Repeat verse and chorus]

Solo:

G|-------------------------------------------------------------------|
D|---------------7-9-9-9-9-9-9-9-9-----------------------------------|
A|-7-7-7-7-7-7-9------------------\5-5-5-5-5-5-7---------------------|
E|-----------------------------------------------10-9-9-9-9-9-7-9-7--|

G|-------------------------------------------------------------------|
D|-------------------------------------------------------------------|
A|-7-7-7-7-7-7-7-7-6-6-6-6-6-6-6-6-5-5-5-5-5-5-5-5-------------------|
E|-------------------------------------------------9-9-9-9-9-7-9-7---|

G|-------------------------------------------------------------------|
D|---------------7-9-9-9-9-------------------------------------------|
A|-7-7-7-7-7-7-9-------------------5-5-5-5-5-5-7---------------------|
E|-------------------------7-7-7-7---------------10-9-9-9-9-9-7-9-7--|

G|-------------------------------------------------------------------|
D|-------------------------------------------------------------------|
A|-7-7-7-7-7-7-7-7-6-6-6-6-6-6-6-6-5-5-5-5-5-5-5-5-4-----------------|
E|-----------------------------------------------------7---5---4-----|

G|-------------------------------------------------------------------|
D|-------------------------------------------------------------------| X 2
A|-4-4-4-4-4-4-4-4-4-4-4-4-4-4-4-3---2-2-2-2-2-2-2-2-2-2-2-2-2-2-2-2-|
E|-------------------------------------------------------------------|

G|-------------------------------------------------------------------|
D|-------------------6---4-------------------------------------------|
A|---------------------------6---------------------------------------|
E|-0-3-4-4-4-4-4-4-4-------------4---5-5-5-5-5-5-5-5-5-5-5-5-5-5-5-5-|

Last verse:

G|-------------------------------------------------------------------|
D|---------------7-9-9-9-9-9-9-9-9-----------------------------------|
A|-7-7-7-7-7-7-9------------------\5-5-5-5-5-5-7---------------------|
E|-----------------------------------------------10-9-9-9-9-9-7-9-7--|

G|-------------------------------------------------------------------|
D|-------------------------------------------------------------------|
A|-7-7-7-7-7-7-7-7-6-6-6-6-6-6-6-6-5-5-5-5-5-5-5-5-------------------|
E|-------------------------------------------------9-9-9-9-9-7-9-7---|

G|-------------------------------------------------------------------|
D|---------------7-9-9-9-9-------------------------------------------|
A|-7-7-7-7-7-7-9-------------------5-5-5-5-5-5-7---------------------|
E|-------------------------7-7-7-7---------------10-9-9-9-9-9-7-9-7--|

G|-------------------------------------------------------------------|
D|-------------------------------------------------------------------|
A|-7-7-7-7-7-7-7-7-6-6-6-6-6-6-6-6-5---------------5-----------------|
E|-------------------------------------8---6---5-------8---6---5-----|

Last chorus:

G|-------------------------------------------------------------------|
D|-------------------------------------------------------------------|
A|-------------------------------------------------------------------| X 2
E|-9-9-9-9-9-9-9-9-9-9-9-9-9-9-9-9-7-7-7-7-7-7-7-7-7-7-7-7-7-7-7-7---|

G|-------------------------------------------------------------------|
D|-------------------------------------------------------------------|
A|-------------------------------------------------------------------|
E|-4-4-4-4-4-4-4-4-4-4-4-4-4-4-4-4-5-5-5-5-5-5-5-5-5---7---4---7-----|

G|-------------------------------------------------------------------|
D|-------------------------------------------------------------------|
A|-------------------------------------------------------------------|
E|-4-4-4-4-4-4-4-4-4-4-4-4-4-4-4-4-5-5-5-5-5-5-5-5-5---7---4---7-----|

G|-------------------------------------------------------------------|
D|-------------------------------------------------------------------|
A|-------------------------------------------------------------------|
E|-4---------------4---------------5---------------------------------|





Comments


Popular Men At Work tabs & chords
Overkill Bass Tabs
Who Can It Be Now? Bass Tabs
Down Under Chords
Down Under 2 Chords
Land Down Under Chords
No Sign Of Yesterday Chords
Underground Chords
Down Under Drum Tabs
Overkill 2 Tabs
Who Can It Be Now? Tabs


Song lyrics



↑ Back to top | Tablatures and chords are parodies/interpretations of the original songs. You may use it for private study, scholarship, research or language learning purposes only
© 2014 AZChords.com Contact us | Privacy policy | DMCA | Add/correct tabs | Request tabs | Top 50 tabs