>
 >
Without Walls

Without Walls Guitar Tabs

Memphis May Fire - Without Walls chords, tabs, tablatures, lyrics

Guitar lessons | Add/correct | Request | Top 50 tabs Artists:  A B C D E F G H I J K L M N O P Q R S T U V W X Y Z 0-9

Without Walls Guitar Tabs – Memphis May Fire

CD, Sheet music, Poster

Do you like Without Walls? Share with your friends now
Tabs
----------------------------------------------------------------------------
                            Without Walls
                           Memphis May Fire
----------------------------------------------------------------------------

What a great way to start and album. It makes me feel like I’m starting a movie. Once 
those lyrics come in, it gives life to the whole album. It is just amazing all around. Enjoy!

Username: dkm817 (same on X box live)

Guitar 1 Rhythmic (C# G# C# F# A# D#)
Guitar 2 Lead     (C# G# C# F# A# D#)

Tab Guide...
===================================================================
(end of measures)

===================================================================
===================================================================
(end of parts)

===================================================================
===================================================================
===================================================================
(end of song)
(If there is a “continued” it is because the numbers could not
fit on 1 line or connecting times played.)


===================================================================
Guitar 1
===================================================================


Intro

Guitar 1 (Piano Part) (x5)
D#-----------------------------------------------------------------|
A#-10~~~~~-----11~-10~~~~~---------------------10~-----------------|
F#---------12~-------------10~~~~~-12~~~~~-12~-------------12~~~~~-|
C#-0~~~~~~~~~~~~~~~~~~~~~~~~~~~~~~~~~~~~~~~~~~~~~~-11~~~~~~~~~~~~~-|
G#-----------------------------------------------------------------|
C#-----------------------------------------------------------------|

===================================================================

Guitar 1 continued
D#-----------------------------------------------------------------|
A#-----------------------------------------------------------------|
F#-10~~~~~-10~-12~-10~~~~~-9~~~~~~-10~~~~~-9~~~~~~-----------------|
C#-8~~~~~~~~~~~~~~~~~~~~~~~~~~~~~~-11~~~~~~~~~~~~~-12~~~~~-11~~~~~-|
G#-----------------------------------------------------------------|
C#-----------------------------------------------------------------|

===================================================================

Guitar 1 (Piano Part) (x5)
D#-----------------------------------------------------------------|
A#-10~~~~~-----11~-10~~~~~---------------------10~-----------------|
F#---------12~-------------10~~~~~-12~~~~~-12~-------------12~~~~~-|
C#-0~~~~~~~~~~~~~~~~~~~~~~~~~~~~~~~~~~~~~~~~~~~~~~-11~~~~~~~~~~~~~-|
G#-----------------------------------------------------------------|
C#-----------------------------------------------------------------|

===================================================================

Guitar 1
D#-----------------------------------------------------------------|
A#-----------------------------------------------------------------|
F#-10~~~~~-10~-12~-10~~~~~-9~~~~~~---------------------------------|
C#-8~~~~~~~~~~~~~~~~~~~~~~~~~~~~~~---------------------------------|
G#-----------------------------------------------------------------|
C#---------------------------------------------------------3~b~r~~-|

===================================================================
===================================================================


Verse

Guitar 1
D#-----------------------------------------------------------------|
A#-----------------------------------------------------------------|
F#-----------------------------------------------------------------|
C#---------------------------------------------0~~-----------------|
G#-----------------5b~---------------------4~~~~~~-1-0-------------|
C#-0---0---3-2-0-------0-0---3-0---7b~-0---------------5-3---5-0-0-|

===================================================================

Guitar 1
D#-----------------------------------------------------------------|
A#-----------------------------------------------------------------|
F#-----------------------------------------------------------------|
C#-8-------------------------------7---------------5-----7-----3---|
G#-----5-----------5-------------------4-----------5-----7-----3---|
C#---------8-8-8-------0-8---0-5-----------7-7-7---5---0-7---0-3---|
Pm         . .         .     .             . .         .     .

===================================================================

Guitar 1
D#-----------------------------------------------------------------|
A#-----------------------------------------------------------------|
F#-----------------------------------------------------------------|
C#---------------------------------------------0~~-----------------|
G#-----------------5b~---------------------4~~~~~~-1-0-------------|
C#-0---0---3-2-0-------0-0---3-0---7b~-0---------------5-3---5-0-0-|

===================================================================

Guitar 1
D#-----------------------------------------------------------------|
A#-----------------------------------------------------------------|
F#-----------------------------------------------------------------|
C#-8-------------------------------7---7-7---7-7---------------7-7-|
G#-----5-----------8-----10----7---7---7-7---7-7---4-4-4-4-7-7-----|
C#---------8-8-8-------0-----0-----7---7-7---7-7-------------------|
Pm         . .         .     .         .     .

===================================================================

Guitar 1
D#-----------------------------------------------------------------|
A#-----------------------------------------------------------------|
F#-----------------------------------------------------------------|
C#---------------------------------------------0~~-----------------|
G#-----------------5b~---------------------4~~~~~~-1-0-------------|
C#-0---0---3-2-0-------0-0---3-0---7b~-0---------------5-3---5-0-0-|

===================================================================

Guitar 1
D#-----------------------------------------------------------------|
A#-----------------------------------------------------------------|
F#-----------------------------------------------------------------|
C#-8-------------------------------7---------------5-----7-----3---|
G#-----5-----------5-------------------4-----------5-----7-----3---|
C#---------8-8-8-------0-8---0-5-----------7-7-7---5---0-7---0-3---|
Pm         . .         .     .             . .         .     .

===================================================================

Guitar 1
D#-----------------------------------------------------------------|
A#-----------------------------------------------------------------|
F#-----------------------------------------------------------------|
C#---------------------------------------------0~~-----------------|
G#-----------------5b~---------------------4~~~~~~-1-0-------------|
C#-0---0---3-2-0-------0-0---3-0---7b~-0---------------5-3---5-0-0-|

===================================================================

Guitar 1
D#-----------------------------------------------------------------|
A#-----------------------------------------------------------------|
F#-----------------------------------------------------------------|
C#-8-------------------------------7---7-7---7-7---0-0-0-0---x-x-x-|
G#-----5-----------8-----10----7---7---7-7---7-7---0-0-0-0---x-x-x-|
C#---------8-8-8-------0-----0-----7---7-7---7-7---0-0-0-0---x-x-x-|
Pm         . .         .     .         .     .     . . . .

===================================================================
===================================================================


Breakdown

Guitar 1
D#------------------------------------------------------------------|
A#------------------------------------------------------------------|
F#------------------------------------------------------------------|
C#-0~~~~~~~~~~-0~~~~~~~~~~-0~~~~~~-0-0-0-0-0~~~~~~-0~~~~~~-0---0~~~-|
G#-0~~~~~~~~~~-0~~~~~~~~~~-0~~~~~~-0-0-0-0-0~~~~~~-0~~~~~~-0---0~~~-|
C#-0~~~~~~~~~~-0~~~~~~~~~~-0~~~~~~-0-0-0-0-0~~~~~~-0~~~~~~-0---0~~~-|
Pm .           .           .       . . . . .       .       .   .

===================================================================

Guitar 1
D#-----------------------------------------------------------------|
A#-----------------------------------------------------------------|
F#-----------------------------------------------------------------|
C#-~~~-------------------------------------------------------------|
G#-~~~-4b--4b~~~~~-------------------------------------------------|
C#-~~~-------------0---0-------------------x---x-------x---0~~~~~~-|

===================================================================

Guitar 1
D#-----------------------------------------------------------------|
A#-----------------------------------------------------------------|
F#-----------------------------------------------------------------|
C#-0---0---0-------0---0-------0---0-0-0-0-0-------0---0-------0---|
G#-0---0---0-------0---0-------0---0-0-0-0-0-------0---0-------0---|
C#-0---0---0-------0---0-------0---0-0-0-0-0-------0---0-------0---|
Pm .   .   .       .   .       .   . . . . .       .   .       .

===================================================================

Guitar 1
D#-----------------------------------------------------------------|
A#-----------------------------------------------------------------|
F#-----------------------------------------------------------------|
C#-----------------------------------------------------------------|
G#-----5---5~~~~~~-1---0-------------------------------------------|
C#-----------------------------------------3---3-------2---0-------|

===================================================================

Guitar 1
D#------------------------------------------------------------------|
A#------------------------------------------------------------------|
F#------------------------------------------------------------------|
C#-0~~~~~~~~~~-0~~~~~~~~~~-0~~~~~~-0-0-0-0-0~~~~~~-0~~~~~~-0---0~~~-|
G#-0~~~~~~~~~~-0~~~~~~~~~~-0~~~~~~-0-0-0-0-0~~~~~~-0~~~~~~-0---0~~~-|
C#-0~~~~~~~~~~-0~~~~~~~~~~-0~~~~~~-0-0-0-0-0~~~~~~-0~~~~~~-0---0~~~-|
Pm .           .           .       . . . . .       .       .   .

===================================================================

Guitar 1
D#-----------------------------------------------------------------|
A#-----------------------------------------------------------------|
F#-----------------------------------------------------------------|
C#-~~~~~~~~~~~~~~~~~~~~~~~~~~~~~~~~~~~~~~~-0---0~~~~~~-0---0---0---|
G#-~~~~~~~~~~~~~~~~~~~~~~~~~~~~~~~~~~~~~~~-0---0~~~~~~-0---0---0---|
C#-~~~~~~~~~~~~~~~~~~~~~~~~~~~~~~~~~~~~~~~-0---0~~~~~~-0---0---0---|
Pm                                         .   .       .   .   .

===================================================================

Guitar 1
D#-----------------------------------------------------------------|
A#-----------------------------------------------------------------|
F#-----------------------------------------------------------------|
C#-0~~~~~~~~~~-0~~~~~~~~~~-0~~~~~~-0-0-0-0-0~~~~~~-0~~~~~~-0---0---|
G#-0~~~~~~~~~~-0~~~~~~~~~~-0~~~~~~-0-0-0-0-0~~~~~~-0~~~~~~---------|
C#-0~~~~~~~~~~-0~~~~~~~~~~-0~~~~~~-0-0-0-0-0~~~~~~-0~~~~~~---------|
Pm .           .           .       . . . . .       .

===================================================================

Guitar 1
D#-----------------------------------------------------------------|
A#-----------------------------------------------------------------|
F#-----------------------------------------------------------------|
C#-3~~~~~~-0---5~~~~~~-0---3~~~~~~---------------------------------|
G#-3~~~~~~-0---5~~~~~~-0---3~~~~~~-1b~~~~~-----1b~~~~~-----4b~~~~~-|
C#-3~~~~~~-0---5~~~~~~-0---3~~~~~~---------0-----------0-----------|
Pm         .           .                   .           .

===================================================================

Guitar 1
D#-----------------------------------------------------------------|
A#-----------------------------------------------------------------|
F#-----------------------------------------------------------------|
C#-0---------------------------------------------------------------|
G#-0---------------------------------------------------------------|
C#-0---------------------------------------------------------------|
Pm .

===================================================================
===================================================================
===================================================================


===================================================================
Guitar 2
===================================================================


Intro


===================================================================
Rest
===================================================================


===================================================================

Guitar 2 (x4)
D#-------------------------5~~~~~~~~~~~~~~~~~~~~~~~~~~~~~~-5~~~~~~~-|
A#-----------------6~~~~~~~~~~~~~~~~~~~~~~~~~~~~~~-6~~~~~~~~~~~~~~~-|
F#---------7~~~~~~~~~~~~~~~~~~~~~~~~~~~~~~-7~~~~~~~~~~~~~~~~~~~~~~~-|
C#------------------------------------------------------------------|
G#------------------------------------------------------------------|
C#------------------------------------------------------------------|

===================================================================

Guitar 2 continued
D#-~~~~~~~~~~~~~~~~~~~~~~~-5~~~~~~~~~~~~~~~~~~~~~~~~~~~~~~-5~~~~~~~
A#-~~~~~~~~~~~~~~~-8~~~~~~~~~~~~~~~~~~~~~~~~~~~~~~-8~~~~~~~~~~~~~~~
F#-~~~~~~~-7~~~~~~~~~~~~~~~~~~~~~~~~~~~~~~-6~~~~~~~~~~~~~~~~~~~~~~~
C#-----------------------------------------------------------------|
G#-----------------------------------------------------------------|
C#-----------------------------------------------------------------|

===================================================================

Guitar 2
D#-------------------------5~~~~~~~~~~~~~~~~~~~~~~~~~~~~~~-5~~~~~~~-|
A#-----------------6~~~~~~~~~~~~~~~~~~~~~~~~~~~~~~-6~~~~~~~~~~~~~~~-|
F#---------7~~~~~~~~~~~~~~~~~~~~~~~~~~~~~~-7~~~~~~~~~~~~~~~~~~~~~~~-|
C#------------------------------------------------------------------|
G#------------------------------------------------------------------|
C#------------------------------------------------------------------|

===================================================================

Guitar 2
D#-~~~~~~~~~~~~~~~~~~~~~~~-5~~~~~~~~~------------------------------|
A#-~~~~~~~~~~~~~~~-8~~~~~~~~~~~~~~~~~------------------------------|
F#-~~~~~~~-7~~~~~~~~~~~~~~~~~~~~~~~~~------------------------------|
C#-----------------------------------------------------------------|
G#-----------------------------------------------------------------|
C#---------------------------------------------------------3~b~r~~-|

===================================================================
===================================================================

Verse

Guitar 2
D#-----------------------------------------------------------------|
A#-----------------------------------------------------------------|
F#-----------------------------------------------------------------|
C#---------------------------------------------0~~-----------------|
G#-----------------5b~---------------------4~~~~~~-1-0-------------|
C#-0---0---3-2-0-------0-0---3-0---7b~-0---------------5-3---5-0-0-|

===================================================================

Guitar 2
D#-----------------------------------------------------------------|
A#-----------------------------------------------------------------|
F#-7-------------------------------6-------------------------------|
C#-----8-------------------------------7-----------5-----7-----3---|
G#-----------------5-------------------------------5-----7-----3---|
C#---------8-8-8-------0-8---0-5-----------7-7-7---5---0-7---0-3---|
Pm         . .         .     .             . .         .     .

===================================================================

Guitar 2
D#-----------------------------------------------------------------|
A#-----------------------------------------------------------------|
F#-----------------------------------------------------------------|
C#---------------------------------------------0~~-----------------|
G#-----------------5b~---------------------4~~~~~~-1-0-------------|
C#-0---0---3-2-0-------0-0---3-0---7b~-0---------------5-3---5-0-0-|

===================================================================

Guitar 2
D#-----------------------------------------------------------------|
A#-----------------------------------------------------------------|
F#-7---------------------------------------------------------------|
C#-----8---------------------------7-7-7-7-7-7-7-7-------------7-7-|
G#---------------------------------4-4-4-4-4-4-4-4-4-4-4-4-7-7-----|
C#---------8-8-8---5---0-8---0-5-----------------------------------|
Pm         . .         .     .

===================================================================

Guitar 2
D#-----------------------------------------------------------------|
A#-----------------------------------------------------------------|
F#-----------------------------------------------------------------|
C#---------------------------------------------0~~-----------------|
G#-----------------5b~---------------------4~~~~~~-1-0-------------|
C#-0---0---3-2-0-------0-0---3-0---7b~-0---------------5-3---5-0-0-|

===================================================================

Guitar 2
D#-----------------------------------------------------------------|
A#-----------------------------------------------------------------|
F#-7-------------------------------6-------------------------------|
C#-----8-------------------------------7-----------5-----7-----3---|
G#-----------------5-------------------------------5-----7-----3---|
C#---------8-8-8-------0-8---0-5-----------7-7-7---5---0-7---0-3---|
Pm         . .         .     .             . .         .     .

===================================================================

Guitar 2
D#-----------------------------------------------------------------|
A#-----------------------------------------------------------------|
F#-----------------------------------------------------------------|
C#---------------------------------------------0~~-----------------|
G#-----------------5b~---------------------4~~~~~~-1-0-------------|
C#-0---0---3-2-0-------0-0---3-0---7b~-0---------------5-3---5-0-0-|

===================================================================

Guitar 2
D#-----------------------------------------------------------------|
A#-----------------------------------------------------------------|
F#-7---------------------------------------------------------------|
C#-----8---------------------------7-7-7-7-7-7-7-7-0-0-0-0---x-x-x-|
G#---------------------------------4-4-4-4-4-4-4-4-0-0-0-0---x-x-x-|
C#---------8-8-8---5---0-8---0-5-------------------0-0-0-0---x-x-x-|
Pm         . .         .     .                     . . . .

===================================================================
===================================================================


Breakdown

Guitar 2
D#------------------------------------------------------------------|
A#------------------------------------------------------------------|
F#------------------------------------------------------------------|
C#-0~~~~~~~~~~-0~~~~~~~~~~-0~~~~~~-0-0-0-0-0~~~~~~-0~~~~~~-0---0~~~-|
G#-0~~~~~~~~~~-0~~~~~~~~~~-0~~~~~~-0-0-0-0-0~~~~~~-0~~~~~~-0---0~~~-|
C#-0~~~~~~~~~~-0~~~~~~~~~~-0~~~~~~-0-0-0-0-0~~~~~~-0~~~~~~-0---0~~~-|
Pm .           .           .       . . . . .       .       .   .

===================================================================

Guitar 2
D#-----------------------------------------------------------------|
A#-----------------------------------------------------------------|
F#-----------------------------------------------------------------|
C#-~~~~~~~~~~~~~~~~~~~~~~~~~~~~~~~~~~~~~~~-------------------------|
G#-~~~~~~~~~~~~~~~~~~~~~~~~~~~~~~~~~~~~~~~-------------------------|
C#-~~~~~~~~~~~~~~~~~~~~~~~~~~~~~~~~~~~~~~~-x---x-------x---0~~~~~~-|

===================================================================

Guitar 2
D#-----------------------------------------------------------------|
A#-----------------------------------------------------------------|
F#-----------------------------------------------------------------|
C#-0---0---0-------0---0-------0---0-0-0-0-0-------0---0-------0---|
G#-0---0---0-------0---0-------0---0-0-0-0-0-------0---0-------0---|
C#-0---0---0-------0---0-------0---0-0-0-0-0-------0---0-------0---|
Pm .   .   .       .   .       .   . . . . .       .   .       .

===================================================================

Guitar 2
D#-----------------------------------------------------------------|
A#-----------------------------------------------------------------|
F#-----------------------------------------------------------------|
C#-----------------------------------------------------------------|
G#-----1---1~~~~~~-------------------------------------------------|
C#-----------------3---5-------------------3---3-------2---0-------|

===================================================================

Guitar 2
D#------------------------------------------------------------------|
A#------------------------------------------------------------------|
F#------------------------------------------------------------------|
C#-0~~~~~~~~~~-0~~~~~~~~~~-0~~~~~~-0-0-0-0-0~~~~~~-0~~~~~~-0---0~~~-|
G#-0~~~~~~~~~~-0~~~~~~~~~~-0~~~~~~-0-0-0-0-0~~~~~~-0~~~~~~-0---0~~~-|
C#-0~~~~~~~~~~-0~~~~~~~~~~-0~~~~~~-0-0-0-0-0~~~~~~-0~~~~~~-0---0~~~-|
Pm .           .           .       . . . . .       .       .   .

===================================================================

Guitar 2
D#-----------------------------------------------------------------|
A#-----------------------------------------------------------------|
F#-----------------------------------------------------------------|
C#-~~~-0---0~~~~~~-0---0~~~~~~~~~~~~~~~~~~-0---0~~~~~~-0---0---0---|
G#-~~~-0---0~~~~~~-0---0~~~~~~~~~~~~~~~~~~-0---0~~~~~~-0---0---0---|
C#-~~~-0---0~~~~~~-0---0~~~~~~~~~~~~~~~~~~-0---0~~~~~~-0---0---0---|
Pm     .   .       .   .                   .   .       .   .   .

===================================================================

Guitar 2
D#-----------------------------------------------------------------|
A#-----------------------------------------------------------------|
F#-----------------------------------------------------------------|
C#-0~~~~~~~~~~-0~~~~~~~~~~-0~~~~~~-0-0-0-0-0~~~~~~-0~~~~~~-0---0---|
G#-0~~~~~~~~~~-0~~~~~~~~~~-0~~~~~~-0-0-0-0-0~~~~~~-0~~~~~~---------|
C#-0~~~~~~~~~~-0~~~~~~~~~~-0~~~~~~-0-0-0-0-0~~~~~~-0~~~~~~---------|
Pm .           .           .       . . . . .       .

===================================================================

Guitar 2
D#-----------------------------------------------------------------|
A#-----------------------------------------------------------------|
F#-----------------------------------------------------------------|
C#-3~~~~~~-0---5~~~~~~-0---3~~~~~~---------------------------------|
G#-3~~~~~~-0---5~~~~~~-0---3~~~~~~-1b~~~~~-----1b~~~~~-----4b~~~~~-|
C#-3~~~~~~-0---5~~~~~~-0---3~~~~~~---------0-----------0-----------|
Pm         .           .                   .           .

===================================================================

Guitar 2
D#-----------------------------------------------------------------|
A#-----------------------------------------------------------------|
F#-----------------------------------------------------------------|
C#-0---------------------------------------------------------------|
G#-0---------------------------------------------------------------|
C#-0---------------------------------------------------------------|
Pm .

===================================================================
===================================================================
===================================================================


Tab Legend
h  - hammer-on
p  - pull-off
/  - slide up
\  - slide down
ps/- pickslide up
ps\- pickslide down
~  - let ring
pm.- palm mute
b  - bend
r  - return from bend
t  - finger tapping
*  - harmonic
x  - dead note
^  - Whammy bar
^\ - Whammy bar (hold down)
^/ - Whammy bar (release)

That is all! I hope this helped, and be sure to check out my cover if you are
having problems with the tab. Thanks, oh and one last thing... ROCK OUT!!!!





Comments


Popular Memphis May Fire tabs & chords
The Abandoned Bass Tabs
The Abandoned 2 Bass Tabs
Miles Away Chords
No Ordinary Love Chords
Legacy Tabs
North Atlantic Vs North Carolina Tabs
Prove Me Right Tabs
The Sinner 1 Tabs
Vices Tabs
Youre Lucky Its Not 1692 Intro Tabs


Song lyrics



↑ Back to top | Tablatures and chords are parodies/interpretations of the original songs. You may use it for private study, scholarship, research or language learning purposes only
© 2014 AZChords.com Contact us | Privacy policy | DMCA | Add/correct tabs | Request tabs | Top 50 tabs