» » »

Mellencamp John, R O C K In The U S A Tabs (ver.1)

Artists:  A B C D E F G H I J K L M N O P Q R S T U V W X Y Z # 

R O C K In The U S A Tabs (ver.1)

Mellencamp John Tabs
Rating:
0/5 (0 votes)
R O C K In The U S A lessons Tabs too difficult? Try these video lessons and learn fast
                PROPS GO TO: DJ

Intro 

e|---------------------------------------------------------------------------| 
B|--------2---3---2----------------------------------------------------------| 
G|4---1---2---0---2----------------------------------------------------------| 
D|4---2---2---0---2----------------------------------------------------------| 
A|2---2-------2--------repeat once with no distortion, and 8x with-----------| 
E|------------3--------------------------------------------------------------| 
(strum however many times you think you need) 
Intro solo 
e|0-0-0-0-0-0-0-0-0-0-0-0-0-0--0-0-0-0-0-0-0-0-0-0-0-0-0-0-repeat 2x---------| 
B|0-0-0-0-0-0-0-0-0-0-0-0-0-0--0-0-0-0-0-0-0-0-0-0-0-0-0-0-------------------| 
G|4-4-4-4-4-4-4-4-4-4-4-4-4-4--4-4-4-4-4-4-4-4-4-4-4-4-4-4-------------------| 
D|---------------------------------------------------------------------------| 
A|---------------------------------------------------------------------------| 
E|---------------------------------------------------------------------------| 

Verse 
e|--------3------------------------------------------------------------------| 
B|----2---3---2--------------------------------------4-4-4-4-4-4-4-4--4------| 
G|1---2---0---2--------------------------------------4-4-4-4-4-4-4-4--4------| 
D|2---2---0---2--------------------------------------4-4-4-4-4-4-4-4--4------| 
A|2-------2------Repeat 4x w/o distortion, 4x with---2-2-2-2-2-2-2-2--2------| 
E|--------3------------------------------------------------------------------| 

Chorus 
e|--------3------------------------------------------------------------------| 
B|----2---3---2--------------------------------------4-4-4-4-4-4-4-4--4------| 
G|1---2---0---2--------------------------------------4-4-4-4-4-4-4-4--4------| 
D|2---2---0---2--------------------------------------4-4-4-4-4-4-4-4--4------| 
A|2-------2------Repeat 4x with distortion-----------2-2-2-2-2-2-2-2--2------| 
E|--------3------------------------------------------------------------------| 

SOLO: Recorder adjusted for guitar 
e|0-0-0-3-0-3-0---0-0--0-0-0-3-0-3-0-----------------------------------------| 
B|--------------3--------------------3-repeat 2x-----------------------------| 
G|---------------------------------------------------------------------------| 
D|---------------------------------------------------------------------------| 
A|---------------------------------------------------------------------------| 
E|---------------------------------------------------------------------------| 

Guitar solo 
e|0-0-0-3-0-3-0-3-0-3-0-0-3-0-3-0-0-3-0-0-3-0-0-3-0-0-3-0-0-0----------------| 
B|0-0-0-3-0-3-0-3-0-3-0-0-3-0-3-0-0-3-0-0-3-0-0-3-0-0-3-0-0-0----------------| 
G|---------------------------------------------------------------------------| 
D|---------------------------------------------------------------------------| 
A|---------------------------------------------------------------------------| 
E|---------------------------------------------------------------------------| 

e|--------12-----------------------------------------------------------------| 
B|15---15---12b14-14b12b14-14b12b14-14b12b14-14b12b14-14-12------------------| 
G|---0------12b14-14b12b14-14b12b14-14b12b14-14b12b14-------14-14-14---------| 
D|---------------------------------------------------------------------------| 
A|---------------------------------------------------------------------------| 
E|---------------------------------------------------------------------------| 

e|17-15--17-15---------------------------------------------------------------| 
B|-------------16-17-17------------------------------------------------------| 
G|---------------------------------------------------------------------------| 
D|---------------------------------------------------------------------------| 
A|---------------------------------------------------------------------------| 
E|---------------------------------------------------------------------------| 
Then it just repeats the verse and chorus until the end
            

comments powered by Disqus
↑ Back to top | Mellencamp John Tabs for R O C K In The U S A. Lyrics for acoustic guitar and electric guitar. Tablatures and chords are parodies/interpretations of the original songs. You may use it for private study, scholarship, research or language learning purposes only