» » »

Mellencamp John, Paper In Fire Bass tabs (ver.1)

Artists:  A B C D E F G H I J K L M N O P Q R S T U V W X Y Z # 

Paper In Fire Bass tabs (ver.1)

Mellencamp John Tabs
Rating:
0/5 (0 votes)
Paper In Fire lessons Tabs too difficult? Try these video lessons and learn fast
                JOHN MELLENCAMP - "Paper In Fire" - Bass Tab

Common Time(4/4)
Standard Tuning(EADG)


INTRO:

|------------------|-----------------|-----------------|
|*-----------------|-----------------|-----------------|
|*-----------------|-----------------|-----------------|
|--7-7-7-7-7-7-7-7-|-7-7-7-7-7-7-7-7-|-7-7-7-7-7-7-7-7-|
   1 & 2 & 3 & 4 &   1 & 2 & 3 & 4 &   1 & 2 & 3 & 4 &

|------------------|
|-----------------*|
|-----------------*| (x4)
|-7-7-7-7-0-5-7-5--|
  1 & 2 & 3 & 4 &


CHORUS:

|------------------|-----------------|-----------------|
|*-----------------|-----------------|-----------------|
|*-----------------|-----------------|-----------------|
|--7-7-7-7-7-7-7-7-|-7-7-7-7-7-7-7-7-|-7-7-7-7-7-7-7-7-|
   1 & 2 & 3 & 4 &   1 & 2 & 3 & 4 &   1 & 2 & 3 & 4 &


              (x3)
|------------------|-----------|---------|-----------------|
|-----------------*|-----------|---------|-----------------|
|-----------------*|-----------|---------|-----------------|
|-7-7-7-7-0-5-7-5--|-5-----5/3-|-0-0-0-0-|-7-7-7-7-7-7-5-7-|
  1 & 2 & 3 & 4 &    1 2 3 4 &   1 2 3 4   1 & 2 & 3 & 4 &


|-----------------|
|-----------------|
|-9-7-6-------2-4-|
|-------9-7-5-----|
  1 & 2 & 3 & 4 &


CHORUS:

|-------------|-------------|-------------|-------------|
|-------------|-------------|-------------|-------------|
|-5-r-5-5-r---|-------------|-------------|-------------|
|-----------5-|-7-r-7-7-r-0-|-5-r-5-5-r-5-|-0-r-0-0-r-0-|
  1 2 & 3 4 &   1 2 & 3 4 &   1 2 & 3 4 &   1 2 & 3 4 &


|-------------|-------------|---------|-----------------|
|-------------|-------------|---------|-----------------|
|-------------|-------------|---------|-7-7-7-7-7-7-7-7-|
|-5-r-5-5-r-5-|-0-r-0-0-r-0-|-5-------|-----------------|
  1 2 & 3 4 &   1 2 & 3 4 &   1 2 3 4   1 & 2 & 3 & 4 &


|---------------|-----------------|
|---------------|-----------------|
|---------------|-----------------|
|-7-r-5-7-7-7-5-|-7-7-7-7-7-7-7-5-|
  1 2 & 3 & 4 &   1 & 2 & 3 & 4 &


INTERLUDE:

|-----------------|-----------------|-----------------|
|-----------------|-----------------|-----------------|
|-5-5-5-5-5-5-5---|-----------------|-5-5-5-5-5-5-5---|
|---------------5-|-7-7-7-7-7-7-7-5-|---------------7-|
  1 & 2 & 3 & 4 &   1 & 2 & 3 & 4 &   1 & 2 & 3 & 4 &


|-----------------|-----------------|-----------------|---------|
|-----------------|-----------------|-----------------|---------|
|-7-7-7-7-7-7-7-7-|-5-5-5-5-5-5-5---|-----------------|---------|
|-----------------|---------------5-|-7-7-7-7-7-7-7-5-|-0-0-0-0-|
  1 & 2 & 3 & 4 &   1 & 2 & 3 & 4 &   1 & 2 & 3 & 4 &   1 2 3 4


|---------|-----------------|-----------------|
|---------|-----------------|-----------------|
|-----5-r-|-----------------|-----------------|
|-5-r-----|-7-7-7-5-7-7-7-5-|-7-7-7-7-7-0-5-5-|
  1 2 3 4   1 & 2 & 3 & 4 &   1 & 2 & 3 & 4 &


END:

|--------------|-------------|-------------|-------------|
|*-------------|-------------|-------------|-------------|
|*-5-r-5-5-r---|-------------|-------------|-------------|
|------------5-|-7-r-7-7-r-0-|-5-r-5-5-r-5-|-0-r-0-0-r-0-|
   1 2 & 3 4 &   1 2 & 3 4 &   1 2 & 3 4 &   1 2 & 3 4 &

                              _____
                             |1.
|-------------|-------------|---------|-----------------|
|-------------|-------------|---------|-----------------|
|-------------|-------------|---------|-7-7-7-7-7-7-7-7-|
|-5-r-5-5-r-5-|-0-r-0-0-r-0-|-5-------|-----------------|
  1 2 & 3 4 &   1 2 & 3 4 &   1 2 3 4   1 & 2 & 3 & 4 &

                                     _____
                                    |2.
|---------------|------------------|---------|---------|
|---------------|-----------------*|---------|---------|
|---------------|-----------------*|---------|---------|
|-7-r-5-7-7-7-5-|-7-7-7-7-7-7-7-5--|-5-------|---------|
  1 2 & 3 & 4 &   1 & 2 & 3 & 4 &    1 2 3 4   1 2 3 4 


         (fade-out)   

|-------------------|
|*-----------------*|
|*-----------------*|
|--7-7-7-7-7-7-7-7--|
   1 & 2 & 3 & 4 &
            
Submit corrections

comments powered by Disqus
↑ Back to top | Mellencamp John Bass for Paper In Fire. Lyrics for acoustic guitar and electric guitar. Tablatures and chords are parodies/interpretations of the original songs. You may use it for private study, scholarship, research or language learning purposes only