>
 >
Hurts So Good

Hurts So Good Bass Tabs

Mellencamp John - Hurts So Good chords, tabs, tablatures, lyrics

Guitar lessons | Add/correct | Request | Top 50 tabs Artists:  A B C D E F G H I J K L M N O P Q R S T U V W X Y Z 0-9

Hurts So Good Bass Tabs – Mellencamp John

CD, Sheet music, Poster

Do you like Hurts So Good? Share with your friends now
Bass TabsTabsTabs v2
 
Alrighty, I figured I'd tab this sum'gun out since there wasn't 
one out there already...It sounds right to muh ear, feel free to 
Hewwo dere
 

Intro1                     Intro 2
     5              12 sec {----------5----------}  
|-|------|----------------||---------|-------------|
|4|--~~--|--\--\--%-------||*--------|------------*|
|4|------|--/--/--/-------||*0-0-0-0-|-0-0-0------*|
|-|------|--\--\-----0-2-4||---------|-------0-2-4-|
     R      R  R  R  + 4 +   1 2 3 4   1 2 3 + 4 +
 
[Vocals start]
 
Verse
 
|---------|---------|---------|---------|
|---------|---------|---------|-0-0-0-0-|   X2
|-0-0-0-0-|---------|---------|---------|
|---------|-0-0-0-0-|-2-2-2-2-|---------|
  1 2 3 4   1 2 3 4   1 2 3 4   1 2 3 4
 
Verse2
(With a girl Like you....)
 
--------|---------|---------|---------|---------|---------|---------|--------
--------|---\-\-\-|---------|---------|---------|-0-0-0-0-|---------|--------
0-0-0-0-|-7-/-/-/-|-0-0-0-0-|---------|---------|---------|---------|--------
--------|---\-\-\-|---------|-0-0-0-0-|-2-2-2-2-|---------|-0-0-0-0-|-0-0-0-0
1 2 3 4   1 2 3 4   1 2 3 4   1 2 3 4   1 2 3 4   1 2 3 4   1 2 3 4   1 2 3 4 
 
Chorus
 
|---------|---------|---------|---------|----------|---------|---------|
|---------|---------|---------|---------|-0--------|-0-0-0-0-|---------|
|-0-0-0-0-|---------|-0-0-0-0-|---------|----------|---------|---------|
|---------|-0-0-0-0-|---------|-0-0-0-0-|-----2----|---------|-0-0-0-0-|      1 2 3 4   1 2 3 4   1 2 3 4   1 2 3 4   1 2 + 3 4  1 2 3 4   1 2 3 4 
 
Repeat Intro2
 
Repeat Verse
 
Repeat Verse2
 
Pre-Bridge
 
|---------|---------|
|---------|---------|
|---------|---------|
|-0-0-0-0-|-0-0-0-0-|
 
Bridge
 
---------|---------|---------|---------|---------|---------|---------|---------
-0-0-0-0-|---------|-0-0-0-0-|---------|-0-0-0-0-|-0-0-0-0-|---------|---------
---------|-0-0-0-0-|---------|-----0-0-|---------|---------|---------|---------
---------|---------|---------|-2-2-----|---------|---------|-0-0-0-0-|-0-0-0-0-
 1 2 3 4   1 2 3 4   1 2 3 4   1 2 3 4   1 2 3 4   1 2 3 4   1 2 3 4   1 2 3 4 
 
Intro2 to fade
 
That's it, Quarter Notes mostly, get the quick punch on the 
"With a girl like you" and you've. Got yourself a sweet jam here....Asta





Comments


Popular Mellencamp John tabs & chords
Rock In The Usa 1 Bass Tabs
Crumblin Down Chords
Minutes To Memories Chords
Pink Houses Chords
Women Seem Chords
Hurts So Good 1 Tabs
Lonly Ol Night Tabs
Pink Houses Tabs
Pink Houses Intro Tabs
Your Life Is Now Tabs


Song lyrics



↑ Back to top | Tablatures and chords are parodies/interpretations of the original songs. You may use it for private study, scholarship, research or language learning purposes only
© 2014 AZChords.com Contact us | Privacy policy | DMCA | Add/correct tabs | Request tabs | Top 50 tabs