» » »

Mellencamp John, Deep Blue Heart Tabs (ver.1)

Artists:  A B C D E F G H I J K L M N O P Q R S T U V W X Y Z # 

Deep Blue Heart Tabs (ver.1)

Mellencamp John Tabs
 Rating:
4/5 (4 votes)
Deep Blue Heart lessons Tabs too difficult? Try these video lessons and learn fast
                PROPS GO TO: aerofuel

*CAPO ON 2nd FRET*

Chords used: C, Am, F, D

Listen for the stroke pattern to get it exactly right...I have placed the stroke pattern for you marked by "D" for down and "U" for up.  It is the same pretty much through the whole song.  *D*D* Just means a double down stroke.  THE LYRICS AND CHORDS ARE AT THE BOTTOM FOR A MUCH EASIER VERSION!

Intro: Just C
    D   U D   U D   U D U D U
E---0---0-0---0-0---0-0-0-0-0---
A---1---1-1---1-1---1-1-0-0-0---
D---0---0-0---0-0---0-0-0-0-0---     3x
G---2---2-2---2-2---2-2-0-0-0---
B---3---3-3---3-3---3-3-0-0-0---
E---0---0-0---0-0---0-0-0-0-0---


Then verse starts:
       Day....leaving    and the night.....in 
E---0---0-0---0-0---0-0-0-0-0----0---0-0---0-0--0-0-0-0-0----------
A---1---1-1---1-1---1-1-0-0-0----1---1-1---1-1--1-1-0-0-0----------
D---0---0-0---0-0---0-0-0-0-0----2---2-2---2-2--2-2-0-0-0----------     
G---2---2-2---2-2---2-2-0-0-0----2---2-2---2-2--2-2-0-0-0----------
B---3---3-3---3-3---3-3-0-0-0----0---0-0---0-0--0-0-0-0-0----------
E---0---0-0---0-0---0-0-0-0-0----0---0-0---0-0--0-0-0-0-0----------

Then it changes...
 
    My head... thin       and..unable .......think
    D   U D   U D   U D U D U    D   U D   U D   U D U D U
E---x---x-x---x-0---0-0-0-0-0----x---x-x---x-0---0-0-0-0-0---------
A---x---x-x---x-1---1-1-0-0-0----x---x-x---x-1---1-1-0-0-0--------- 
D---2---2-2---2-0---0-0-0-0-0----2---2-2---2-0---0-0-0-0-0---------  
G---3---3-3---3-2---2-2-0-0-0----3---3-3---3-2---2-2-0-0-0---------
B---3---3-3---3-3---3-3-0-0-0----3---3-3---3-3---3-3-0-0-0---------
E---1---1-1---1-0---0-0-0-0-0----1---1-1---1-0---0-0-0-0-0---------

Then...

        I guess...             see..it brings
    D   U D   U D   U D U D U  *D*D* U D   U D U D U    
E---0---0-0---0-0---0-0-0-0-0---x-x--0-0---0-0-0-0-0---------------
A---1---1-1---1-1---1-1-0-0-0---x-x--0-1---1-1-0-0-0---------------
D---0---0-0---0-0---0-0-0-0-0---2-2--0-0---0-0-0-0-0---------------
G---2---2-2---2-2---2-2-0-0-0---3-3--0-2---2-2-0-0-0---------------
B---3---3-3---3-3---3-3-0-0-0---3-3--0-3---3-3-0-0-0---------------
E---0---0-0---0-0---0-0-0-0-0---1-1--0-0---0-0-0-0-0---------------

Followed by...

        I have........left and I guess....to start
E---2---2-2---2-2---2-2-0-0-0----x---x-x---x-0---0-0-0-0-0---------
A---3---3-3---3-3---3-3-0-0-0----x---x-x---x-1---1-1-0-0-0---------
D---2---2-2---2-2---2-2-0-0-0----2---2-2---2-0---0-0-0-0-0---------
G---0---0-0---0-0---0-0-0-0-0----3---3-3---3-2---2-2-0-0-0---------
B---0---0-0---0-0---0-0-0-0-0----3---3-3---3-3---3-3-0-0-0---------
E---0---0-0---0-0---0-0-0-0-0----1---1-1---1-0---0-0-0-0-0---------

    But my...                     Deep Blue Heart
                                 *D ** D* U D   U D U D
E---0---0-0---0-0---0-0-0-0-0-----x----x--0-0---0-0-0-0-0---------
A---1---1-1---1-1---1-1-0-0-0-----x----x--0-1---1-1-0-0-0---------
D---0---0-0---0-0---0-0-0-0-0-----2----2--0-0---0-0-0-0-0---------
G---2---2-2---2-2---2-2-0-0-0-----3----3--0-2---2-2-0-0-0---------
B---3---3-3---3-3---3-3-0-0-0-----3----3--0-3---3-3-0-0-0---------
E---0---0-0---0-0---0-0-0-0-0-----1----1--0-0---0-0-0-0-0---------



Okay, I know that was confusing, so here are the lyrics with the chords...

Chords used:

    C   Am  F   D 
E---0---0---x---2------x---
A---1---1---x---3--  --x---
D---0---2---2---2--  --7---
G---2---2---3---0--OR--7---
B---3---0---3---0--  --5---
E---0---0---1---0------0---



C
 Daylight is leaving
         Am
 And the night is closing in
C
 In just a few hours
     Am
 The sleeplessness begins again
F              C
 My head feels thick
F                  C 
 And I'm unable to think
C
 I guess I'll wait 'til tomorrow
     F   F       C
 And see what it brings
D
 I have a little hope left
       F                         C
 And I guess that's someplace to start
C
 But my memory's full
      F    F    C 
 Of a deep blue heart.


C
 My fun-loving sense of humor
   Am
Is nowhere to be found
C
 I stare into my own eyes
      Am
 With tears flowing down
F               C
 I'd sing out a song, but I've
F             C
 Forgotten the tune
C
 And the words now escape me
       F       F        C
 But I think it's about you
D                 F              C 
 My vision now is way out in the dark
C
 With just a little sight left
      F    F    C
 Of a deep blue heart


C
 I see us both flying
        Am
 In the clear blue sky
C
 Floating out on the ocean
          Am
 With the sun in our eyes
F            C
 Caught in a moment
F            C
 Just me and you
C
 In complete honesty
       F    F        C
 Where everything is true
D
 That's what I wanted to believe
F               C
 Right from the start
C
 Just a little place for myself
      F    F    C
 In a deep blue heart


C
 Carve out a place for myself
         F    F    C
 In your deep blue heart


That's it...hope it helps!
            
Submit corrections

comments powered by Disqus
↑ Back to top | Mellencamp John Tabs for Deep Blue Heart. Lyrics for acoustic guitar and electric guitar. Tablatures and chords are parodies/interpretations of the original songs. You may use it for private study, scholarship, research or language learning purposes only