» » »

Melissa Etheridge, Don't Look At Me Bass tabs (ver.1)

Artists:  A B C D E F G H I J K L M N O P Q R S T U V W X Y Z # 

Don't Look At Me Bass tabs (ver.1)

Melissa Etheridge Tabs
 Rating:
4/5 (4 votes)
Don't Look At Me lessons Tabs too difficult? Try these video lessons and learn fast
1
                #------------------------------------------------------------------------------##
#





Don't look at me
----------------

By Melissa Etheridge. From the movie 'Welcome home Roxy Carmichael'.
Lyrics to the first verse from Maarten van Egmond's 'MLE unreleased' page
(coz I didn't get to the 'record' button in time!).

Since this is not on a ME album, I've tabbed out the melody to the vocal,
so you don't have to go to the video store before you can sing it.


Time sig 4/4, 96 beats per minute.

     G                              C               Dv
e --------------------------0--------------------------------------|
B ---3---3---3-----3---3------3-----1---1----0---------------------|
G ----------------------------------------------0---0--2-----------|
D ----------------------------------------------------------0------|
    You can try,   I don't ca-are   forcing circles into squares
bts  ^       ^     ^        ^       ^       ^        ^      ^

   G                              C                D
e ------------------------0---------------------------------------|
B -3---3----3----3---3------3-----1---1---0-----------------------|
G --------------------------------------------0----2--2---4--2--0-|
D ----------------------------------------------------------------|
  You can spend precious ti-ime  marching in your perfect li-i-ine
   ^        ^     ^       ^       ^        ^       ^      ^

   Em                               Dv
e -----------------------------------------------------------------|
B -----------------------------0-----------------------------------|
G ------------------0-----2---------2------------------------------|
D ------------0--2-------------------------------------------------|
             But I don't hear that drum
    ^     ^      ^        ^         ^      ^     ^     ^

   Em                          C         D
e -----------------------------------------------------------------|
B -------------------------0---1----3----3-------------------------|
G ------------------0--2-------------------------------------------|
D -------------2---------------------------------------------------|
              I'm looking for something else
    ^     ^   ^       ^        ^    ^    ^    ^

[chorus]:
         G                             C                 D
e -------------------------------0-------------------------------|
B ---3---3----3----3---3-----3-----3---1---1-----0---------------|
G ----------------------------------------------------2--0---2---|
D --------------------------------------------------------------0|
 And if you don't like what you se-ee,you don't have to look at me
         ^         ^     ^       ^     ^         ^       ^      ^

       G                            C                D
e ---------------------------0-------------------------------|
B -3---3----3----3---3----3----3----1---1---0----------0-----|
G -----------------------------------------------2---2-----2-|
D -----------------------------------------------------------|
   If you don't like what I sa-ay, you can turn the other way
       ^         ^    ^      ^      ^       ^        ^     ^

      G                                   C         D      G...
e -3--3---3-----0----3----3---0------------------------------------|
B ------------------------------3-----3---1-------------0--0-------|
G ---------------------------------------------------2--------2--0-|
D -----------------------------------------------------------------|
  If you don't like what you se-ee  then don't     look at me-ee-ee
      ^         ^    ^        ^           ^     ^    ^      ^       ^


              ...G               C           D
                 ^     ^         ^     ^     ^     ^


      G                          C           D
      ^     ^     ^     ^        ^     ^     ^     ^


G                       C             Dv
Add it up, count me out I'm taking a different route

G                            C               D
I did not mean to offend, before I broke I chose to mend

Em                    Dv
    So I'll be on my way

Em                   C       D
     I have nothing left to say

        G                           C                 D
But if you don't like what you see you don't have to look at me

    G                         C                 D
If you don't like what I say you can turn the other way

    G                                C     D      G     C
If you don't like what you see then don't look at me

D                         G    C
you don't have to look at me

Ad lib vocal over | G  | C D |,  e.g.

                     C         D                        G
e ||--3-----0------------------------------------------------------||
B ||.-----------3----1-------------------------------0---0--------.||
G ||.--------------------------2---2-----2----0--2----------2--0--.||
D ||---------------------------------------------------------------||
      mm   mm   mm   mm       you don't have to look at me-ee-ee
    ^      ^          ^    ^   ^                 ^      ^        ^


EADGBe
320003 - G
x32010 - C
xx0232 - D
xx023x - Dv  (don't play the top e string)


Any improvements welcome.


Nic
            
Submit corrections

comments powered by Disqus
↑ Back to top | Melissa Etheridge Bass for Don't Look At Me. Lyrics for acoustic guitar and electric guitar. 1 Tablatures and chords are parodies/interpretations of the original songs. You may use it for private study, scholarship, research or language learning purposes only