» » »

What Have They Done To My Song Ma Tabs (ver.1)

Artists:  A B C D E F G H I J K L M N O P Q R S T U V W X Y Z # 

What Have They Done To My Song Ma Tabs (ver.1)

Melanie Safka
Rating:
0/5 (0 votes)

Hard to play? Try these video lessons and learn fast.
                -----------------------------------------------------------------------------
         What have they done with my song, ma? - Melanie Safka
-----------------------------------------------------------------------------

Tuning: Standard


4/4

   C                 Am                VIII.F(m)         I.F   
e|---0---0-3-x---0-|-----------------|---------8-------|-1---------------|
H|-----4---1---4---|-1---------------|--10-910-10--910-|-1-------4-------|
G|---------0-------|-0-------2-------|---------8-------|-2----2--2-------|
D|---------2-------|-2-------2-------|---------10------|-3---3---3---3---|
A|-3-------3-------|-0-------0---0-10|-8---8---8---8---|-3-3-----3-------|
E|-----3-------3---|-----0-----------|-----------------|-1-------1-------|
  

   C       G         F       F6        C       G         C        
e|---0-0-0---------|-----------------|---0---0-3-----0-|-----------------|
H|---1-1-1-3-3-3---|---1-3-4-3---1---|-----4---0---3---|-1---------------|
G|---0-0---0---0---|-----2---4---2---|---------0---0---|-0---------------|
D|---2-2---0---0---|-----1---6---3---|---------0---0---|-2---------------|
A|-3---3---2---2---|-----3---4---3---|-3-------2---2---|-3-------0---2---|
E|---------3---3---|01---1---1---1---|-----3---3---3---|-----3-----------|




| /  slide up
| \  slide down
| h  hammer-on
| p  pull-off
| ~  vibrato
| +  harmonic
| x  Mute note
===============================================================================
            
Hard to play? Try these video lessons and learn fast. | Correct




comments powered by Disqus
↑ Back to top | Tablatures and chords are parodies/interpretations of the original songs. You may use it for private study, scholarship, research or language learning purposes only