» » »

Melanie C, Carolyna Tabs (ver.1)

Artists:  A B C D E F G H I J K L M N O P Q R S T U V W X Y Z # 

Carolyna Tabs (ver.1)

Melanie C Tabs
 Rating:
4.2/5 (5 votes)
Carolyna lessons Tabs too difficult? Try these video lessons and learn fast
                ----------------------------------------------------------------------------
----------------------------------------------------------------------------

Tuning: standard with capo on 3rd

the picking pattern I have tabbed for Em and F arent exact but they sound ok to me


Intro
    Dm       C         G       Dm        C      G
e|-----1-------------------------1----------------------|
B|-------3-----1---------1-3-------3-----1---------1-0--|
G|---2-----------0-------------2-----------0------------|   
D|-0---------2---------0-----0---------2---------0------|
A|---------3---------2---------------3---------2--------|
E|-----------------3-------------------------3----------|

Verse:
    Dm      C          G       Dm       C       G
e|-----1-------------------------1----------------------|
B|-------3-----1---------1-3-------3-----1---------1-0--|
G|---2-----------0-------------2-----------0------------|   
D|-0---------2---------0-----0---------2---------0------|
A|---------3---------2---------------3---------2--------|
E|-----------------3-------------------------3----------|
Just another girl with a dream in her heart Wanna make a new start with a fire inside of her...

    Dm      C        G
e|-----1---------------------| 
B|-------3-----1---------1-3-| 
G|---2-----------0-----------| 
D|-0---------2---------0-----| 
A|---------3---------2-------| 
E|-----------------3---------| 
She had to go...

    Dm      C          G       Dm       C       G
e|-----1-------------------------1----------------------|
B|-------3-----1---------1-3-------3-----1---------1-0--|
G|---2-----------0-------------2-----------0------------|   
D|-0---------2---------0-----0---------2---------0------|
A|---------3---------2---------------3---------2--------|
E|-----------------3-------------------------3----------|
She couldn't stay around, everybody let her down
Stole the light and the life and the child inside of her
    
     Em              F
e|-------0-----------1--------|
B|---------0-----------1------|
G|-----0-----0-----2-----2----|
D|---2-----------3------------|
A|-2-----------3--------------|
E|----------------------------|
She's so alone...

    Dm      C          G       Dm       C       G
e|-----1-------------------------1----------------------|
B|-------3-----1---------1-3-------3-----1---------1-0--|
G|---2-----------0-------------2-----------0------------|   
D|-0---------2---------0-----0---------2---------0------|
A|---------3---------2---------------3---------2--------|
E|-----------------3-------------------------3----------|
Running for the train Take her far away from everything she knows
And the way they make her feel

    Dm      C        G
e|-----1---------------------| 
B|-------3-----1---------1-3-| 
G|---2-----------0-----------| 
D|-0---------2---------0-----| 
A|---------3---------2-------| 
E|-----------------3---------|
She leaves today

    Dm      C          G       Dm       C       G
e|-----1-------------------------1----------------------|
B|-------3-----1---------1-3-------3-----1---------1-0--|
G|---2-----------0-------------2-----------0------------|   
D|-0---------2---------0-----0---------2---------0------|
A|---------3---------2---------------3---------2--------|
E|-----------------3-------------------------3----------|
Never look back never lose track already strong
She's seen too much at seventeen

Pre Chorus:
     Em              F        Em       strum F
e|-------0-----------1----------0---|
B|---------0-----------1---------0--|
G|-----0-----0-----2-----2----0---0-|
D|---2-----------3-----------2------|
A|-2-----------3-----------2--------|
E|----------------------------------|
The past will fade with the future that she craves

Chorus:
 F     C                Em        
Carolyna you travel so far
           Am                                    F
Trying to escape the pain, start again where you are
       C                          Em
Carolyna you keep following your star
                   Am                                     F
Nobody said you're beautiful, you're beautiful the way you are

Verse:
    Dm      C          G       Dm       C       G
e|-----1-------------------------1----------------------|
B|-------3-----1---------1-3-------3-----1---------1-0--|
G|---2-----------0-------------2-----------0------------|   
D|-0---------2---------0-----0---------2---------0------|
A|---------3---------2---------------3---------2--------|
E|-----------------3-------------------------3----------|
Finally you're free where you long to be But it won't take long till hits reality


    Dm      C        G
e|-----1---------------------| 
B|-------3-----1---------1-3-| 
G|---2-----------0-----------| 
D|-0---------2---------0-----| 
A|---------3---------2-------| 
E|-----------------3---------| 
The streets are cold


    Dm      C          G       Dm       C       G
e|-----1-------------------------1----------------------|
B|-------3-----1---------1-3-------3-----1---------1-0--|
G|---2-----------0-------------2-----------0------------|   
D|-0---------2---------0-----0---------2---------0------|
A|---------3---------2---------------3---------2--------|
E|-----------------3-------------------------3----------|
Big, bad city gonna eat you up Hard to survive, hard to keep your sanity
   
Pre Chorus:  
     Em              F        Em       strum F
e|-------0-----------1----------0---|
B|---------0-----------1---------0--|
G|-----0-----0-----2-----2----0---0-|
D|---2-----------3-----------2------|
A|-2-----------3-----------2--------|
E|----------------------------------|
Still feeling low But she's never going home

Chorus:
 F     C                Em        
Carolyna you travel so far
           Am                                    F
Trying to escape the pain, start again where you are
       C                          Em
Carolyna you keep following your star
                   Am                                     F
Nobody said you're beautiful, you're beautiful the way you are

Bridge:

e|-0-0-0--0----------|
B|-1-1-1--1-1-h3-p1--|
G|-2-2-2--2----------|
D|-2-2-2--2----------|    X4
A|-0-0-0--0----------|
E|-------------------|
You're beautiful, you're beautiful...

     Em                  F            Em            F                       
e|---------0--------------1---------------0---------------1-------|
B|-------0---0---0------1---1---1-------0---0---0-------1---1---1-|
G|-----0-------0------2-------2-------0-------0-------2-------2---|
D|---2--------------3---------------2---------------3-------------|
A|-2--------------3---------------2---------------3---------------|
E|----------------------------------------------------------------|
She tries to rest            All she needs is a warm caress 

      Em         and strum F
e|-------0--------|
B|---------0---0--|
G|-----0-----0----|
D|---2------------|
A|-2--------------|
E|----------------|
All she wants is happiness


Chorus:
 F     C                Em        
Carolyna you travel so far
           Am                                    F
Trying to escape the pain, start again where you are
       C                          Em
Carolyna you keep following your star
                   Am                                     F
Nobody said you're beautiful, you're beautiful the way you are

X2 and end on C
            
Submit corrections

comments powered by Disqus
↑ Back to top | Melanie C Tabs for Carolyna. Lyrics for acoustic guitar and electric guitar. Tablatures and chords are parodies/interpretations of the original songs. You may use it for private study, scholarship, research or language learning purposes only