» » »

Supereroi Bass tabs (ver.1)

Artists:  A B C D E F G H I J K L M N O P Q R S T U V W X Y Z # 

Supereroi Bass tabs (ver.1)

Meganoidi
Rating:
0/5 (0 votes)

Tabs too difficult? Try these video lessons and learn fast.
                MEGANOIDI
"SuperEroi"
Into the Darkness into the moda 2001 version
__________________________________________________________
Questa è la seconda versione che ho tablato..Mi sono
accorto che la prima era terribilmente sbagliata..per cui
se qualcuno fosse in possesso della prima,mi scuso..
Questa canzone è fantastica e Jacco è grandissimo!!
PS:Spero vivamente che questa volta sia giusta!!
________________by Ghigo85________________________________
G-----------------------------------------------------
D----------------------------5-6-8-6-5---7-8-10-8-7---
A--2-3-5-3-2--2-3-5-3-2----6----------6/8-----------8-
E-3----------3----------3-----------------------------x2

G----------------------------
D---------------8------10----
A--5-x-5-2---5----6-6h8---8--
E-3--------3-----------------x2

G-----------------------------------------------------
D----------------------------5-6-8-6-5---7-8-10-8-7---
A--2-3-5-3-2--2-3-5-3-2----6----------6/8-----------8-
E-3----------3----------3-----------------------------

G------------------------------------------------
D----------------------------5-6-8-6-5--8-7------
A--2-3-5-3-2--2-3-5-3-2----6----------6-----8-10-
E-3----------3----------3------------------------

G---------------------
D---------------------
A-----------4-4-3-4-4-
E-5-5-4-5-5-----------

G----------------------
D-----------6-6-6--7-7-
A--7-7-7-7-4-4-4-/5-5--
E-5-5-5-5--------------

G---------------------
D---------------------
A---------------------
E-5-5-4-5-5-----------
B-----------2-2-1-2-2-

G-------------------------------------
D-------------------------------------
A-6-6-/8-\6-5-5-5-6--6-6--3-3-3-3-2-0-
E-------------------------------------

G-----
D-----
A-2-3-
E-----
(Con la tromba/With the trumpet)
G-----------
D-----------
A-5-x-5-4-3-
E-----------

G-----------------------------------------------------
D----------------------------5-6-8-6-5---7-8-10-8-7---
A--2-3-5-3-2--2-3-5-3-2----6----------6/8-----------8-
E-3----------3----------3-----------------------------x2


G----------------------------
D---------------8------10----
A--5-x-5-2---5----6-6h8---8--
E-3--------3-----------------x2

G-15-15-15-13-12-----
D--------------------
A----------------6h8-
E--------------------

G-----------------------------------------------------
D----------------------------5-6-8-6-5---7-8-10-8-7---
A--2-3-5-3-2--2-3-5-3-2----6----------6/8-----------8-
E-3----------3----------3-----------------------------

G------------------------------------------------
D----------------------------5-6-8-6-5--8-7------
A--2-3-5-3-2--2-3-5-3-2----6----------6-----8-10-
E-3----------3----------3------------------------


G---------------------
D---------------------
A-----------4-4-3-4-4-
E-5-5-4-5-5-----------

G----------------------
D-----------6-6-6--7-7-
A--7-7-7-7-4-4-4-/5-5--
E-5-5-5-5--------------

G---------------------
D---------------------
A---------------------
E-5-5-4-5-5-----------
B-----------2-2-1-2-2-

G-------------------------------------
D-------------------------------------
A-6-6-/8-\6-5-5-5-6--6-6--3-3-3-3-2-0-
E-------------------------------------

G-----
D-----
A-2-3-
E-----
__Assolo(Bass Solo)_________________________
G-------------------8-8-8-8--10-10-10-
D--5-5-5-5-5-5-5-5--------------------
A------------------6-6-6-6--8--8--8---
E-3-3-3-3-3-3-3-3---------------------

G-15-15-13-12-----
D-----------------
A-------------6h8-
E-----------------

G-------------------8-8-8-8--10-10-10-
D--5-5-5-5-5-5-5-5--------------------
A------------------6-6-6-6--8--8--8---
E-3-3-3-3-3-3-3-3---------------------


G-15-15-15--13-12-----
D---------------------
A-----------------6h8-
E---------------------
__Ripeti fino alla fine dell'assolo_________

G---------------
D---------------
A-----4p3-x-5h6-
E-5p4----------- x 2

G----------------------
D----------------------
A------------------3-4-
E-5-5-4-5-5-4-5-5-4----


G----------------------
D-----------6-6-6--7-7-
A--7-7-7-7-4-4-4-/5-5--
E-5-5-5-5--------------

G---------------------
D---------------------
A---------------------
E-5-5-4-5-5-----------
B-----------2-2-1-2-2-


G-------------------------------------
D-------------------------------------
A-6-6-/8-\6-5-5-5-6--6-6--3-3-3-3-2-0-
E-------------------------------------

G-----
D-----
A-2-3-
E-----
Outro
G------------------------------------------------------------
D------------------------------------------------------------
A------------------------------------------------------------
E-6-6-6-6-6/10-8-6-3-3-3-3-3-6-6-6-6-10-6-8-10-6-6-10-6-8-10-

G---------------
D---------------
A---------------
E-3-3-3-3-3-3-3-

G---------------
D---------------
A---------------
E-6-6-6-6-6-6-6-

Ripeti fino alla fine...
____________Suggerimenti(TIPS)________________

1)Durante l'assolo,nei riff sul Do nella corda Sol sul 15mo tasto,
potete sostituirli con questo riff...
(che poi mi sembra fosse il modo in cui lo faceva nel live!)

G-..|--8-8-8-8--10--10---------------
D-..|------------------10-10-8-7-----
A-..|-6-6-6-6--8--8--------------6h8-
E-..|--------------------------------

2)Se volete con il basso imitare il riff delle trombe sostituite 
i riff di apertura così---

G-----------
D-----------
A-5-x-5-4-3-
E-----------

G----------------------|..--
D----------2-----------|..--
A--2-3-5-5---5-3-2-3-3-|..--
E-3--------------------|..--

3)Continuate ad ascoltare la canzone fino oltre i 5 minuti...
Troverete un assolo del bassista Jacco(mitico Jacco!!!)..
se volete sapere com'è scrivetemi oppure cercate la tab su internet..
oppure aspettate la mia tab!!

Sperando sia tutto giusto...vi saluto!!!
            
Tabs too difficult? Try these video lessons and learn fast.




comments powered by Disqus
↑ Back to top | Tablatures and chords are parodies/interpretations of the original songs. You may use it for private study, scholarship, research or language learning purposes only