» » »

Meganoidi, Meganoidi Bass tabs (ver.1)

Artists:  A B C D E F G H I J K L M N O P Q R S T U V W X Y Z # 

Meganoidi Bass tabs (ver.1)

Meganoidi Tabs
 Rating:
4/5 (4 votes)
Meganoidi lessons Tabs too difficult? Try these video lessons and learn fast
                - Intro

  G |---------------9---10-x-10---10-x-10---11-x-11---11---------------------|      
  D |---8-x-8---8----------------------------------------------------3--6----|  
  A |-------------7---8---------8---------9---------9----6h7-6---4-6---------|  
  E |-6-------6--------------------------------------------------------------|  

    |---------------9---10-x-10-------------11-x-11---11---------------------|     
    |---8-x-8---8--------------------10------------------------------3-6-----|      
    |-------------7---8-----------10----8h9---------9----6h7-6---4-6---------| "check it out!"
    |-6-------6-----------------8-----------------------------------------1--|     

- Verso

    |-----------------9---10-x-10-------------11-x-11---11---------------------------|
    |-----8-x-8---8--------------------10------------------------------3-6-----------|
    |---------------7---8-----------10----8h9---------9----6h7-6---4-6--------0-3-0--|
    |---6-------6-----------------8-----------------------------------------1--------|
     Il verso varia spesso e scriverlo sarebbe stato un po' complicato
     perciò sta alla vostra inventiva fare qualche variante...

- Rit 

    |------------------------------------------------------------------------|
    |-------------------------------------------------3-3-3-3-(....)---------|
    |1-1-1-1-(...)----------------------------4-4-4-4------------------------|
    |-------------1-1-1-1-(...)-2-2-2-2-(...)--------------------------------|
      idem come sopra

- 1° Interludio (2 giri)

|-6-------------6-8------------10-----------------------6--------9-----------|
|---8-x-8--6-8------7----7---7----8-------8---9---11------4-6------7-9-------|
|--------------------8-8---8--------9-x-9---9---9-----4--------7-------------|
|----------------------------------------------------------------------------|
  Ovviamente il primo giro è quello più interessante... il secondo può anche
  andar bene un'ottava più bassa ma vi consiglio di improvvisarci qualcosa


- 2° Interludio
  La trascrizione del secondo interludio è inutile... Improvvisate una linea
  reggae sul giro: SIb - FA - SOLb - REb - FA (Potete prendere spunto dalle
  triadi).


- Outro (tempo rallentanto)
/-
|
| |---------------9---10-x-10---10-x-10----11-x-11---11------------------------|
| |---8-x-8---8------------------------------------------------------3h6p3\----|
| |-------------7---8---------8----------9---------9-----6h7-6---4-6-----------|
| |-6-------6------------------------------------------------------------------|
|
| |---------------------7h8-------||
| |-------------------8-----8-----||
| |----0h1-3-0----6h8---------8---||
| |-1-----------6---------------6~||
|   *
\--
            
Submit corrections

comments powered by Disqus
↑ Back to top | Meganoidi Bass for Meganoidi. Lyrics for acoustic guitar and electric guitar. Tablatures and chords are parodies/interpretations of the original songs. You may use it for private study, scholarship, research or language learning purposes only