» » »

Meganoidi, Into The Darkness Into The Moda Bass tabs (ver.1)

Artists:  A B C D E F G H I J K L M N O P Q R S T U V W X Y Z # 

Into The Darkness Into The Moda Bass tabs (ver.1)

Meganoidi Tabs
 Rating:
4/5 (4 votes)
Into The Darkness Into The Moda lessons Tabs too difficult? Try these video lessons and learn fast
1
                Questo brano è nascosto nell'ultima traccia dell'album. Non è un vero e proprio
brano, piuttosto penso sia un'improvvisazione del bassista. Cmq mi è sembrata
molto bella ed ho deciso di tabbarla!

                                  --- o ---

L'improvvisazione si articola su tre passi. Potete ripetere il singolo passo
ad libitum ma vi conviene seguire l'ordine 1,1,2,3,2,3,1,1,2,3,2,3....

Passo 1
G|---12h14---12---11---11h12---12h14------------------------------------------
D|-0-------0----0----0-------0--------------12----12-------15----15-----14----
A|-----------------------------------12h14-----14---p13-13----13----12-----12-
E|----------------------------------------------------------------------------

-----12h14---12---11---11h12---12h14--------------------------------14-------|
---0-------0----0----0-------0-------------12----12-------12---13/15---------|
-------------------------------------12h14----14----x11/13-------------------|

Passo 2
|----------------------------------------------------------------------------|
|----15----15----15-----15----15-----15----15-----15----14\------------------|
|-13----13----13-----13----12------------------------------------------------|
|---------------------------------13----13-----13----12----------------------|

Passo 3
|-----------------------|---------------| 
|---7---7h9p7---7-----7-|-7/9---9---9---|
|0----0-------0----0----|-----0---0---0-|
|-----------------------|---------------|

  
EnJoY ThE GrOoVe !!!
            
Submit corrections

comments powered by Disqus
↑ Back to top | Meganoidi Bass for Into The Darkness Into The Moda. Lyrics for acoustic guitar and electric guitar. 1 Tablatures and chords are parodies/interpretations of the original songs. You may use it for private study, scholarship, research or language learning purposes only