>
 >
Roses 6

Roses 6 Guitar Tabs

Meg And Dia - Roses 6 chords, tabs, tablatures, lyrics

Guitar lessons | Add/correct | Request | Top 50 tabs Artists:  A B C D E F G H I J K L M N O P Q R S T U V W X Y Z 0-9

Roses 6 Guitar Tabs – Meg And Dia

CD, Sheet music, Poster

Do you like Roses 6? Share with your friends now
ChordsTabsTabs v2Tabs v3Tabs v4Tabs v5Tabs v6Ukulele
“Roses”
2nd guitar
Intro
(0.00-0.35)
e [-----------------]
B [-----------------]
G [--6--------------] (6x)
D [--6—16x---7------]
A [--4-------7—16x--]
E [----------5------]
	*	   *

Chorus
(0.36-0.53)
e [-------------------]		e [-----------------]
B [-------------------]		B [------------1~---]
G [--6----9-----------] (2x)	G [---------2~—2~---]
D [--6—8x-9-8x--7-----]		D [--4—-----2~-2~---]
A [--4----7--—--7--16x]		A [--4-11x—-0~------]
E [-------------5-----]		E [--2--------------]

Verse I
(0.54-1.04)
e [----------5~-----]
B [----------5~-----]
G [----------5~-----] (2x)
D [-2~-6~—7~-7~-----]
A [-2~-6~-7~-7~-----]
E [-0~-4~-5~-5~-----]

Back to intro but 4x instead of 6x
(1.05-1.29)

Back to Chorus after intro.
(1.30-1.46)
Verse II
(1.47-2.11)
e [-----------------5~-------]
B [-----------------5~-------]
G [-----------------6~-------] (4x)
D [-2----6----7-----7~-------]
A [-2-8x-6-8x-7-8x--7~-8x----]
E [-0----4----5-----5~-------]

Verse III
(2.11-2.32)
e [-----------------------------------------]
B [-----------------------------------------]
G [--6----------------6---------------------] (6x)
D [--6—8x--7----9-----6-8x--7----9-----9~---]
A [--4-----7—8x-9-16x-4-----7-8x-9-10x-9~---]
E [--------5----7-----------5----7-----7~---]

Ending
(2.33-3.28)
e [-------------------]		e [---------------]		[------]
B [-------------------]		B [---------------]		[--1~--]
G [--6----7-----------] (4x)	G [---------2-----]		[--2~--]
D [--6—8x-9-8x--7-----]		D [--4—-----2-----] 3x	        [--2~--]
A [--4----9--—--7-16x-]		A [--4-11x—-0—11x-]		[------]
E [-------------5-----]		E [--2------------]		[------]





Comments


Popular Meg And Dia tabs & chords
Bored Of Your Love 2 Chords
Setting Up Sunday Chords
Setting Up Sunday 3 Chords
The One 2 Chords
Teddy Loves Her Intro Tabs
Black Wedding Ukulele
Courage Robert 2 Ukulele
Joey Had A Smoke Ukulele
My Babys Better Than Yours Ukulele
One Sail One Sea Ukulele


Song lyrics



↑ Back to top | Tablatures and chords are parodies/interpretations of the original songs. You may use it for private study, scholarship, research or language learning purposes only
© 2014 AZChords.com Contact us | Privacy policy | DMCA | Add/correct tabs | Request tabs | Top 50 tabs