>
 >
Roses 5

Roses 5 Guitar Tabs

Meg And Dia - Roses 5 chords, tabs, tablatures, lyrics

Guitar lessons | Add/correct | Request | Top 50 tabs Artists:  A B C D E F G H I J K L M N O P Q R S T U V W X Y Z 0-9

Roses 5 Guitar Tabs – Meg And Dia

CD, Sheet music, Poster

Do you like Roses 5? Share with your friends now
ChordsTabsTabs v2Tabs v3Tabs v4Tabs v5Tabs v6Ukulele
“Roses”
2nd guitar
Intro
(0.00-0.35)
e [-----------------]
B [-----------------]
G [--7--------------] (6x)
D [--7—16x---8------]
A [--5-------8—16x--]
E [----------6------]
	*	   *

Chorus
(0.36-0.53)
e [-------------------]		e [------------1~---]
B [-------------------]		B [------------2~---]
G [--7----8-----------] (2x)	G [---------3~—3~---]
D [--7—8x-10-8x--6----]		D [--5—-----3~-3~---]
A [--5----10--—--8-16x]		A [--5-11x—-1~-1~---]
E [--------------8----]		E [--3---------1~---]

Verse I
(0.54-1.04)
e [----------6~-----]
B [----------6~-----]
G [----------7~-----] (2x)
D [-3~-7~—8~-8~-----]
A [-3~-7~-8~-8~-----]
E [-1~-5~-6~-6~-----]

Back to intro but 4x instead of 6x
(1.05-1.29)

Back to Chorus after intro.
(1.30-1.46)
Verse II
(1.47-2.11)
e [-----------------6~-------]
B [-----------------6~-------]
G [-----------------7~-------] (4x)
D [-3----7----8-----8~-------]
A [-3-8x-7-8x-8-8x--8~-8x----]
E [-1----5----6-----6~-------]

Verse III
(2.11-2.32)
e [-----------------------------------------]
B [-----------------------------------------]
G [--7-----------------7--------------------] (6x)
D [--7—8x--8----10-----7-8x-8----10-----10~-]
A [--5-----8—8x-10-16x-5----8-8x-10-10x-10~-]
E [--------6----8-----------6-----8-----8~--]

Ending
(2.33-3.28)
e [-------------------]		e [---------------]		[--1~--]
B [-------------------]		B [---------------]		[--2~--]
G [--7----8-----------] (4x)	G [---------3-----]		[--3~--]
D [--7—8x-10-8x--6----]		D [--5—-----3-----] 3x	        [--3~--]
A [--5----10--—--8-16x]		A [--5-11x—-1—11x-]		[--1~--]
E [--------------8----]		E [--3------------]		[--1~--]





Comments


Popular Meg And Dia tabs & chords
Roses Chords
Setting Up Sunday Chords
Cardigan Weather Tabs
Masterpiece Tabs
Monster 3 Tabs
Nineteen Stars Acoustic Live Tabs
Roses 6 Tabs
Halloween Ukulele
My Ugly Mouth Ukulele
Roses Ukulele


Song lyrics



↑ Back to top | Tablatures and chords are parodies/interpretations of the original songs. You may use it for private study, scholarship, research or language learning purposes only
© 2014 AZChords.com Contact us | Privacy policy | DMCA | Add/correct tabs | Request tabs | Top 50 tabs