» » »

Meg And Dia, Nineteen Stars Tabs (ver.2)

Artists:  A B C D E F G H I J K L M N O P Q R S T U V W X Y Z # 

Nineteen Stars Tabs (ver.2)

Meg And Dia Tabs
 Rating:
4.3/5 (6 votes)
Nineteen Stars  lessons Tabs too difficult? Try these video lessons and learn fast
                (Acoustic)
(Live)
Verse
E:1------6------5------6------:
B:1------6------6------6------:
G:2------7------7------7------:
D:3(x10)-8(x10)-7(x10)-8(x10)-:
A:3------8------5------8------:
E:1------6------5------6------:


Pre Chorus
E:5------8--------6------:
B:6------8--------6------:
G:7------9--------7------:
D:7(x10)-10-(x10)-8(x20)-:
A:5------10-------8------:
E:5------8--------6------:

Chorus
E:1------5------6----/8-------:::1------5------6----/8------1------:
B:1------6------6----/8-------:::1------6------6----/8------1------:
G:2------7------7----/9-------:::2------7------7----/9------2------:
D:3(x10)-7(x10)-8(x4)/10-(x4)-:::3(x10)-7(x10)-8(x4)/10(x4)-3(x10)-:
A:3------5------8----/10------:::3------5------8----/10-----3------:
E:1------5------6----/8-------:::1------5------6----/10-----1------:

Breakdown/ Bridge
E:5------6----------1-------------:
B:6------6----------1------1------:
G:7------7----------2------0------:
D:7(x10)-8(x10)-----3(x10)-2(x10)-: (all this 2x)
A:5------8----------3------3------:
E:5------6----------1-------------:

Outro
the 2nd part of the outro is played 3 times

1st                                           2nd             3rd
E:3------0------0-----2-------3------0-----::I--0-----2-----I::-3---:ending
B:3------0------1-----3-------3------0-----::I--1-----3-----I::-3---:chord
G:0------0------0-----2-------0------0-----::I--0-----2-----I::-0---:is
D:0(x10)-2(x10)-2(x4)-0(x4)---0(x10)-2(x10)::I--2(x4)-0(x4)-I::-0---:played
A:2------2------3-----0-------2------2-----::I--3-----0-----I::-2---:once
E:3------0------0-----0-------3------0-----::I--0-----0-----I::-3---:

Verse x2
Pre Chorus
Chorus
verse x 2
Pre Chorus
Chorus
Breakdown/Bridge
Outro
            
Submit corrections

comments powered by Disqus
↑ Back to top | Meg And Dia Tabs for Nineteen Stars. Lyrics for acoustic guitar and electric guitar. Tablatures and chords are parodies/interpretations of the original songs. You may use it for private study, scholarship, research or language learning purposes only