>
 >
Monster 3

Monster 3 Guitar Tabs

Meg And Dia - Monster 3 chords, tabs, tablatures, lyrics

Guitar lessons | Add/correct | Request | Top 50 tabs Artists:  A B C D E F G H I J K L M N O P Q R S T U V W X Y Z 0-9

Monster 3 Guitar Tabs – Meg And Dia

CD, Sheet music, Poster

Do you like Monster 3? Share with your friends now
Bass TabsChordsChords v2Chords v3Chords v4Chords v5Drum TabsTabsTabs v2Tabs v3UkuleleUkulele v2
Monster (Acoustic) Ė Meg & Dia
Drop D

Intro
e|--x-x-x-x-x-x-x-x-x-x--------------|------9--9--9--9--9----------------|
B|--x-x-x-x-x-x-x-x-x-x--------------|------10-10-10-10-10---------------|
G|--x-x-x-x-x-x-x-x-x-x--------------|------9--9--9--9--9----------------|
D|--4-4-4-4-4-4-4-4-4-4--------------|--0-0-0--0--0--0--0----------------|
A|--4-4-4-4-4-4-4-4-4-4--------------|--0-0-0--0--0--0--0----------------|
D|--4-4-4-4-4-4-4-4-4-4--------------|--0-0-0--0--0--0--0----------------|


e|--x-x-x-x-x-x-x-x-x-x--------------|------9--9--9--9--9----------------|
B|--x-x-x-x-x-x-x-x-x-x--------------|------10-10-10-10-10---------------|
G|--x-x-x-x-x-x-x-x-x-x--------------|------9--9--9--9--9----------------|
D|--4-4-4-4-4-4-4-4-4-4--------------|--0-0-0--0--0--0--0----------------|
A|--4-4-4-4-4-4-4-4-4-4--------------|--0-0-0--0--0--0--0----------------|
D|--4-4-4-4-4-4-4-4-4-4--------------|--0-0-0--0--0--0--0----------------|


Verse 1
e|--x-x-x-x-x-x-x-x-x-x--------------|------9--9--9--9--9----------------|
B|--x-x-x-x-x-x-x-x-x-x--------------|------10-10-10-10-10---------------|
G|--x-x-x-x-x-x-x-x-x-x--------------|------9--9--9--9--9----------------|
D|--4-4-4-4-4-4-4-4-4-4--------------|--0-0-0--0--0--0--0----------------|
A|--4-4-4-4-4-4-4-4-4-4--------------|--0-0-0--0--0--0--0----------------|
D|--4-4-4-4-4-4-4-4-4-4--------------|--0-0-0--0--0--0--0----------------|
   His little whispers			 Love me, love me

e|--x-x-x-x-x-x-x-x-x-x--------------|------9--9--9--9--9----------------|
B|--x-x-x-x-x-x-x-x-x-x--------------|------10-10-10-10-10---------------|
G|--x-x-x-x-x-x-x-x-x-x--------------|------9--9--9--9--9----------------|
D|--4-4-4-4-4-4-4-4-4-4--------------|--0-0-0--0--0--0--0----------------|
A|--4-4-4-4-4-4-4-4-4-4--------------|--0-0-0--0--0--0--0----------------|
D|--4-4-4-4-4-4-4-4-4-4--------------|--0-0-0--0--0--0--0----------------|
   Thatís all I ask for		 Love me, love me


Pre-chorus
e|--x-x-x-x-x-x-x-x-x----------------|--x-x-x-x-x-x-x-x-x-x-x-x----------|
B|--x-x-x-x-x-x-x-x-x----------------|--x-x-x-x-x-x-x-x-x-x-x-x----------|
G|--x-x-x-x-x-x-x-x-x----------------|--x-x-x-x-x-x-x-x-x-x-x-x----------|
D|--4-4-4-4-4-4-4-4-4----------------|--7-7-7-7-7-7-7-7-7-7-x-x----------|
A|--4-4-4-4-4-4-4-4-4----------------|--7-7-7-7-7-7-7-7-7-7-x-x----------|
D|--4-4-4-4-4-4-4-4-4----------------|--7-7-7-7-7-7-7-7-7-7-x-x----------|
   He battered his			 tiny fists to

e|--x--x-x-x-x-x-x-x-x-x-x-x-x-x-x-x-x-x-x-x-|--x-x-x-x-x-x-x-x-x--------|
B|--x--x-x-x-x-x-x-x-x-x-x-x-x-x-x-x-x-x-x-x-|--x-x-x-x-x-x-x-x-x--------|
G|--x--x-x-x-x-x-x-x-x-x-x-x-x-x-x-x-x-x-x-x-|--x-x-x-x-x-x-x-x-x--------|
D|-12-12-x-x-7-7-x-x-2-2-4-4-4-4-4-4-4-4-4-4-|--4-4-4-4-4-4-4-4-4--------|
A|-12-12-x-x-7-7-x-x-2-2-4-4-4-4-4-4-4-4-4-4-|--4-4-4-4-4-4-4-4-4--------|
D|-12-12-x-x-7-7-x-x-2-2-4-4-4-4-4-4-4-4-4-4-|--4-4-4-4-4-4-4-4-4--------|
   feel       something		    	 Wondered what itís

e|--x-x-x-x-x-x-x-x-x-x-x-x--x--x-x-x-|-x-x-x----------------------------|
B|--x-x-x-x-x-x-x-x-x-x-x-x--x--x-x-x-|-x-x-x----------------------------|
G|--x-x-x-x-x-x-x-x-x-x-x-x--x--x-x-x-|-x-x-x----------------------------|
D|--7-7-7-7-7-7-7-7-7-7-x-x-12-12-x-x-|-7-7-9----------------------------|
A|--7-7-7-7-7-7-7-7-7-7-x-x-12-12-x-x-|-7-7-9----------------------------|
D|--7-7-7-7-7-7-7-7-7-7-x-x-12-12-x-x-|-7-7-9----------------------------|
   like to touch and	     feel     something


Chorus 1 (picked)
e|---5-2--5-2--2---9-5--9-5--9-------|-----------------44--44--4---------|
B|-----------------------------------|--0-5--0-5--0----22--22--2---------|
G|-----------------------------------|-----------------------------------|
D|-----------------------------------|-----------------------------------|
A|-----------------------------------|-0----0----0----4---4---4----------|
D|--4----4----4---0----0----0--------|-----------------------------------|
 Monster, how should I feel? Creatures lie here, looking through the window			

Repeat Intro
e|--x-x-x-x-x-x-x-x-x-x--------------|------9--9--9--9--9----------------|
B|--x-x-x-x-x-x-x-x-x-x--------------|------10-10-10-10-10---------------|
G|--x-x-x-x-x-x-x-x-x-x--------------|------9--9--9--9--9----------------|
D|--4-4-4-4-4-4-4-4-4-4--------------|--0-0-0--0--0--0--0----------------|
A|--4-4-4-4-4-4-4-4-4-4--------------|--0-0-0--0--0--0--0----------------|
D|--4-4-4-4-4-4-4-4-4-4--------------|--0-0-0--0--0--0--0----------------|


e|--x-x-x-x-x-x-x-x-x-x--------------|------9--9--9--9--9----------------|
B|--x-x-x-x-x-x-x-x-x-x--------------|------10-10-10-10-10---------------|
G|--x-x-x-x-x-x-x-x-x-x--------------|------9--9--9--9--9----------------|
D|--4-4-4-4-4-4-4-4-4-4--------------|--0-0-0--0--0--0--0----------------|
A|--4-4-4-4-4-4-4-4-4-4--------------|--0-0-0--0--0--0--0----------------|
D|--4-4-4-4-4-4-4-4-4-4--------------|--0-0-0--0--0--0--0----------------|


Verse 2
e|--x-x-x-x-x-x-x-x-x-x--------------|------9--9--9--9--9----------------|
B|--x-x-x-x-x-x-x-x-x-x--------------|------10-10-10-10-10---------------|
G|--x-x-x-x-x-x-x-x-x-x--------------|------9--9--9--9--9----------------|
D|--4-4-4-4-4-4-4-4-4-4--------------|--0-0-0--0--0--0--0----------------|
A|--4-4-4-4-4-4-4-4-4-4--------------|--0-0-0--0--0--0--0----------------|
D|--4-4-4-4-4-4-4-4-4-4--------------|--0-0-0--0--0--0--0----------------|
   That night he caged her		 Bruised and broke her

e|--x-x-x-x-x-x-x-x-x-x--------------|------9--9--9--9--9----------------|
B|--x-x-x-x-x-x-x-x-x-x--------------|------10-10-10-10-10---------------|
G|--x-x-x-x-x-x-x-x-x-x--------------|------9--9--9--9--9----------------|
D|--4-4-4-4-4-4-4-4-4-4--------------|--0-0-0--0--0--0--0----------------|
A|--4-4-4-4-4-4-4-4-4-4--------------|--0-0-0--0--0--0--0----------------|
D|--4-4-4-4-4-4-4-4-4-4--------------|--0-0-0--0--0--0--0----------------|
   He struggled closer			 Then he stole her


Pre-chorus
e|--x-x-x-x-x-x-x-x-x----------------|--x-x-x-x-x-x-x-x-x-x-x-x----------|
B|--x-x-x-x-x-x-x-x-x----------------|--x-x-x-x-x-x-x-x-x-x-x-x----------|
G|--x-x-x-x-x-x-x-x-x----------------|--x-x-x-x-x-x-x-x-x-x-x-x----------|
D|--4-4-4-4-4-4-4-4-4----------------|--7-7-7-7-7-7-7-7-7-7-x-x----------|
A|--4-4-4-4-4-4-4-4-4----------------|--7-7-7-7-7-7-7-7-7-7-x-x----------|
D|--4-4-4-4-4-4-4-4-4----------------|--7-7-7-7-7-7-7-7-7-7-x-x----------|
   Violet wrists and			  Then her ankles


e|--x--x-x-x-x-x-x-x-x-x-x-x-xxxx-x-x-xxxx--|--x-x-x-x-x-x-x-x-x---------|
B|--x--x-x-x-x-x-x-x-x-x-x-x-xxxx-x-x-xxxx--|--x-x-x-x-x-x-x-x-x---------|
G|--x--x-x-x-x-x-x-x-x-x-x-x-xxxx-x-x-xxxx--|--x-x-x-x-x-x-x-x-x---------|
D|-12-12-x-x-7-7-x-x-2-2-4-4-xxxx-4-4-xxxx--|--4-4-4-4-4-4-4-4-4---------|
A|-12-12-x-x-7-7-x-x-2-2-4-4-xxxx-4-4-xxxx--|--4-4-4-4-4-4-4-4-4---------|
D|-12-12-x-x-7-7-x-x-2-2-4-4-xxxx-4-4-xxxx--|--4-4-4-4-4-4-4-4-4---------|
   Silent pain					Then he slowly

e|--x-x-x-x-x-x-x-x-x-x-xx--x--x-xx--|-x-x-xx-x--------------------------|
B|--x-x-x-x-x-x-x-x-x-x-xx--x--x-xx--|-x-x-xx-x--------------------------|
G|--x-x-x-x-x-x-x-x-x-x-xx--x--x-xx--|-x-x-xx-x--------------------------|
D|--7-7-7-7-7-7-7-7-7-7-xx-12-12-xx--|-7-7-xx-9--------------------------|
A|--7-7-7-7-7-7-7-7-7-7-xx-12-12-xx--|-7-7-xx-9--------------------------|
D|--7-7-7-7-7-7-7-7-7-7-xx-12-12-xx--|-7-7-xx-9--------------------------|
    Saw their nightmares    were his dream


Chorus 2
e|--x-x-x-x-x-x-x-x-x-x--------------|------9--9--9--9--9----------------|
B|--x-x-x-x-x-x-x-x-x-x--------------|------10-10-10-10-10---------------|
G|--x-x-x-x-x-x-x-x-x-x--------------|------9--9--9--9--9----------------|
D|--4-4-4-4-4-4-4-4-4-4--------------|--0-0-0--0--0--0--0----------------|
A|--4-4-4-4-4-4-4-4-4-4--------------|--0-0-0--0--0--0--0----------------|
D|--4-4-4-4-4-4-4-4-4-4--------------|--0-0-0--0--0--0--0----------------|
   Monster, how should			I feel?  Creatures

e|--x-x-x-x-x-x-x-x-x-x--------------|---x--x--x--x--x--x--x--x--x--x----|
B|--x-x-x-x-x-x-x-x-x-x--------------|---x--x--x--x--x--x--x--x--x--x----|
G|--x-x-x-x-x-x-x-x-x-x--------------|---x--x--x--x--x--x--x--x--x--x----|
D|--7-7-7-7-7-7-7-7-7-7--------------|--11-11-11-11-11-11-11-11-11-11----|
A|--7-7-7-7-7-7-7-7-7-7--------------|--11-11-11-11-11-11-11-11-11-11----|
D|--7-7-7-7-7-7-7-7-7-7--------------|--11-11-11-11-11-11-11-11-11-11----|
   lie here, looking			through the windows

e|--x-x-x-x-x-x-x-x-x-x--------------|------9--9--9--9--9----------------|
B|--x-x-x-x-x-x-x-x-x-x--------------|------10-10-10-10-10---------------|
G|--x-x-x-x-x-x-x-x-x-x--------------|------9--9--9--9--9----------------|
D|--4-4-4-4-4-4-4-4-4-4--------------|--0-0-0--0--0--0--0----------------|
A|--4-4-4-4-4-4-4-4-4-4--------------|--0-0-0--0--0--0--0----------------|
D|--4-4-4-4-4-4-4-4-4-4--------------|--0-0-0--0--0--0--0----------------|
   I will hear their			 voices.  Iím a

e|--x-x-x-x-x-x-x-x-x-x--------------|--x-x-x-x-x-x-x-xxxx---------------|
B|--x-x-x-x-x-x-x-x-x-x--------------|--x-x-x-x-x-x-x-xxxx---------------|
G|--x-x-x-x-x-x-x-x-x-x--------------|--x-x-x-x-x-x-x-xxxx---------------|
D|--7-7-7-7-7-7-7-7-7-7--------------|--2-2-2-2-2-2-2-xxxx---------------|
A|--7-7-7-7-7-7-7-7-7-7--------------|--2-2-2-2-2-2-2-xxxx---------------|
D|--7-7-7-7-7-7-7-7-7-7--------------|--2-2-2-2-2-2-2-xxxx---------------|
   glass child.  I am			 Hannahís regrets.


Bridge
e|--x-x-x-x-x-x-x-x-x-x--------------|--x-x-x-x-x-x-x-x-x-x--------------|
B|--x-x-x-x-x-x-x-x-x-x--------------|--x-x-x-x-x-x-x-x-x-x--------------|
G|--x-x-x-x-x-x-x-x-x-x--------------|--x-x-x-x-x-x-x-x-x-x--------------|
D|--4-4-4-4-4-4-4-4-4/2--------------|--4-4-4-4-4-4-4-4-4/7--------------|
A|--4-4-4-4-4-4-4-4-4/2--------------|--4-4-4-4-4-4-4-4-4/7--------------|
D|--4-4-4-4-4-4-4-4-4/2--------------|--4-4-4-4-4-4-4-4-4/7--------------|


e|------9--9--9--9--9--9--9--x--x-----|------9--9--9--9--9--9--9--x------|
B|------10-10-10-10-10-10-10-x--x-----|------10-10-10-10-10-10-10-x------|
G|------9--9--9--9--9--9--9--x--x-----|------9--9--9--9--9--9--9--x------|
D|--0-0-0--0--0--0--0--0--0-12-12-----|--0-0-0--0--0--0--0--0--0--2------|
A|--0-0-0--0--0--0--0--0--0-12-12-----|--0-0-0--0--0--0--0--0--0--2------|
D|--0-0-0--0--0--0--0--0--0-12-12-----|--0-0-0--0--0--0--0--0--0--2------|


Chorus 3
e|---5-2--5-2--2----------------------|--------9-5--9-5--xx--------------|
B|------------------------------------|------------------xx--------------|
G|------------------------------------|------------------xx--------------|
D|------------------------------------|------------------xx--------------|
A|------------------------------------|------------------xx--------------|
D|--4----4----4-----------------------|-------0----0-----xx--------------|
   Monster, how should 			I feel? Turn the

e|--x-x-x-x-x-x-x-x-x-x--------------|---x--x--x--x--x--x--x--x--x--x----|
B|--x-x-x-x-x-x-x-x-x-x--------------|---x--x--x--x--x--x--x--x--x--x----|
G|--x-x-x-x-x-x-x-x-x-x--------------|---x--x--x--x--x--x--x--x--x--x----|
D|--7-7-7-7-7-7-7-7-7-7--------------|--11-11-11-11-11-11-11-11-11-11----|
A|--7-7-7-7-7-7-7-7-7-7--------------|--11-11-11-11-11-11-11-11-11-11----|
D|--7-7-7-7-7-7-7-7-7-7--------------|--11-11-11-11-11-11-11-11-11-11----|
   sheets down.  Murder		 ears with pillow lace.

e|-x-x-x-x-x-x--x--x--x--x--x--x--x--x--x--x--x--x-|-x-x-x-x-x-x-x-x-x-x-|
B|-x-x-x-x-x-x--x--x--x--x--x--x--x--x--x--x--x--x-|-x-x-x-x-x-x-x-x-x-x-|
G|-x-x-x-x-x-x--x--x--x--x--x--x--x--x--x--x--x--x-|-x-x-x-x-x-x-x-x-x-x-|
D|-4-4-6-6-7-7-11-11-12-12-12-12-12-12-12-12-12-12-|-7-7-7-7-7-7-7-7-7-7-|
A|-4-4-6-6-7-7-11-11-12-12-12-12-12-12-12-12-12-12-|-7-7-7-7-7-7-7-7-7-7-|
D|-4-4-6-6-7-7-11-11-12-12-12-12-12-12-12-12-12-12-|-7-7-7-7-7-7-7-7-7-7-|
Thereís bath tubs, filled with glow flies.  Bathe in kerosene, their words

e|--x-x-x-x-x-x-x-x-x-x-x-x----------|--x-x-x-x-x-x-x-x-xxx--------------|
B|--x-x-x-x-x-x-x-x-x-x-x-x----------|--x-x-x-x-x-x-x-x-xxx--------------|
G|--x-x-x-x-x-x-x-x-x-x-x-x----------|--x-x-x-x-x-x-x-x-xxx--------------|
D|--2-2-2-2-2-2-2-2-2-2-2-2----------|--4-4-4-4-4-4-4/2-xxx--------------|
A|--2-2-2-2-2-2-2-2-2-2-2-2----------|--4-4-4-4-4-4-4/2-xxx--------------|
D|--2-2-2-2-2-2-2-2-2-2-2-2----------|--4-4-4-4-4-4-4/2-xxx--------------|
  tattooed in his			veins.

e|--x-x-x-x-x-x-x-x-xxx--------------|--x-x-x-x-x-x-x-x-xxx-x------------|
B|--x-x-x-x-x-x-x-x-xxx--------------|--x-x-x-x-x-x-x-x-xxx-x------------|
G|--x-x-x-x-x-x-x-x-xxx--------------|--x-x-x-x-x-x-x-x-xxx-x------------|
D|--4-4-4-4-4-4-4/2-xxx--------------|--4-4-4-4-4-4-4/2-xxx-4------------|
A|--4-4-4-4-4-4-4/2-xxx--------------|--4-4-4-4-4-4-4/2-xxx-4------------|
D|--4-4-4-4-4-4-4/2-xxx--------------|--4-4-4-4-4-4-4/2-xxx-4------------|





Comments


Popular Meg And Dia tabs & chords
Best Friend Girlfriend Chords
Bored Of Your Love 1 Chords
Going Away Chords
Here Here And Here 1 Chords
Black Wedding Tabs
Santa Barbara Tabs
Masterpiece Ukulele
Nineteen Stars Ukulele
Teddy Loves Her Ukulele
The One Ukulele


Song lyrics



↑ Back to top | Tablatures and chords are parodies/interpretations of the original songs. You may use it for private study, scholarship, research or language learning purposes only
© 2014 AZChords.com Contact us | Privacy policy | DMCA | Add/correct tabs | Request tabs | Top 50 tabs