>
 >
Monster

Monster Guitar Tabs

Meg And Dia - Monster chords, tabs, tablatures, lyrics

Guitar lessons | Add/correct | Request | Top 50 tabs Artists:  A B C D E F G H I J K L M N O P Q R S T U V W X Y Z 0-9

Monster Guitar Tabs – Meg And Dia

CD, Sheet music, Poster

Do you like Monster? Share with your friends now
Bass TabsChordsChords v2Chords v3Chords v4Chords v5Drum TabsTabsTabs v2Tabs v3UkuleleUkulele v2
-------------------------------------------------------------------------------
-------------------------------------------------------------------------------

Fun song to play. picking part was a little tricky to get but its decent. feel free to 
corrections and feedback is welcomed.


Tuning:Standard

| /  slide up
| \  slide down
| h  hammer-on
| p  pull-off
| ~  vibrato
| +  harmonic
| x  Mute note
| .  Palm mute

Intro (distortion)
e|------------------------------|
B|------------------------------|
G|-14--------13-------9---------|
D|--x-(x16)---x-(x8)--x-(x8)----|
A|-12--------11-------7---------|
E|------------------------------|

Verse (clean)
e|---------5---------------5---------|
B|-----7-----7---------7-----7-------|
G|---6---6-----6-----6---6-----6-----|
D|-4-------------4-0-------------0---| x2
A|-----------------------------------|
E|-----------------------------------|

(distortion)
e|-------------------------------------------|
B|-------------------------------------------|
G|----------66666666-777-666-----------------|
D|-44444444-77777777-777-777-22-44xxxx44-----|
A|-44444444-77777777-555-777-22-44xxxx44-----|
E|-22222222-55555555-----555-00-22xxxx22-----|

e|---------------------------------------|
B|---------------------------------------|
G|----------66666666-777-666-4~-4444444--|
D|-44444444-77777777-777-777-4~-4444444--|
A|-44444444-77777777-555-777-2~-2222222--|
E|-22222222-55555555-----555-------------|
                     Palm mute  .......

Chorus (clean)
e|---5-----5-----5---5-----5-----5---------------------------|
B|-----7-----7---------7-----7-------------0-----0-----------|
G|-------6-----6---------6-----6-------2-----2---------1---2-|
D|-4---------------0-----------------2---2-----2-----2---2---|
A|---------------------------------0-------------------------|
E|-------------------------------------------------0---------|

(distortion
e|-------------------------------|
B|-------------------------------|
G|-14--------13-------9----------|
D|--x-(x16)---x-(x8)--x-(x8)-----|
A|-12--------11-------7----------|
E|-------------------------------|

Verse (clean)
e|---------5---------------5---------|
B|-----7-----7---------7-----7-------|
G|---6---6-----6-----6---6-----6-----|
D|-4-------------4-0-------------0---| x2
A|-----------------------------------|
E|-----------------------------------|

(distortion)
e|-------------------------------------------|
B|-------------------------------------------|
G|----------66666666-777-666-----------------|
D|-44444444-77777777-777-777-22-44xxxx44xxxx-|
A|-44444444-77777777-555-777-22-44xxxx44xxxx-|
E|-22222222-55555555-----555-00-22xxxx22xxxx-|

e|--------------------------------|
B|--------------------------------|
G|----------66666666-777-666-4~---|
D|-44444444-77777777-777-777-4~---|
A|-44444444-77777777-555-777-2~---|
E|-22222222-55555555-----555------|

Chorus (distortion)
e|----------------------------------------|
B|----------------------------------------|
G|----------77777777-66666666-99999999----|
D|-44444444-77777777-77777777-99999999----| x2
A|-44444444-55555555-77777777-77777777----|
E|-22222222----------55555555-------------|

Breakdown (distortion)
Listen to song for strum pattern
e|---------------------------------------------------------|
B|---------------------------------------------------------|
G|-------------------------6-7777-7777-76-7777-7777-79-----|
D|-4444-4444-42-4444-4444-47-7777-7777-76-7777-7777-79-----|
A|-4444-4444-42-4444-4444-47-5555-5555-54-5555-5555-57-----|
E|-2222-2222-20-2222-2222-25-------------------------------|

same pattern as above
e|---------------------------------------------------|
B|---------------------------------------------------|
G|-14------13--14------13--11------9--11------9~-----|
D|--x-(x9)--x---x-(x9)--x---x-(x9)-x---x-(x9)-x~-----|
A|-12------11--12------11---9------7---9------7~-----|
E|---------------------------------------------------|

Chorus (distortion)
e|---5-----5-----5---5-----5---------------------------|
B|-----7-----7---------7-----7-------------------------|
G|-------6-----6---------6-----66666666-99999999-------|
D|-4---------------0-----------77777777-99999999-------|
A|-----------------------------77777777-77777777-------|
E|-----------------------------55555555----------------|

e|----------------------------------------------------|
B|----------------------------------------------------|
G|----------------6666-77777777-66666666-44444444-----|
D|-4444\6666\7777-xxxx-77777777-xxxxxxxx-xxxxxxxx-----|
A|-xxxx\xxxx\xxxx-4444-55555555-44444444-22222222-----|
E|-2222\4444\5555-------------------------------------|

End (distortion)
e|-------------------------------------------|
B|-------------------------------------------|
G|-------------------------------------------|
D|----4-4----4-4----4----4-4----4-4----4-----|
A|----4-4----4-4----4----4-4----4-4----4-----|
E|-00-2-2-00-2-2-00-2-00-2-2-00-2-2-00-2-----|

Listen to the song to get the hang of the strumming and it will sound great :]





Comments


Popular Meg And Dia tabs & chords
Fighting For Nothing Chords
Halloween Chords
How Much Chords
Rebecca Chords
Sta Barbara Chords
Masterpiece 2 Tabs
Cardigan Weather Ukulele
Lessons In New Jersey Ukulele
Nineteen Stars Ukulele
Rebecca Ukulele


Song lyrics



↑ Back to top | Tablatures and chords are parodies/interpretations of the original songs. You may use it for private study, scholarship, research or language learning purposes only
© 2014 AZChords.com Contact us | Privacy policy | DMCA | Add/correct tabs | Request tabs | Top 50 tabs