>
 >
Masterpiece 2

Masterpiece 2 Guitar Tabs

Meg And Dia - Masterpiece 2 chords, tabs, tablatures, lyrics

Guitar lessons | Add/correct | Request | Top 50 tabs Artists:  A B C D E F G H I J K L M N O P Q R S T U V W X Y Z 0-9

Masterpiece 2 Guitar Tabs – Meg And Dia

CD, Sheet music, Poster

Do you like Masterpiece 2? Share with your friends now
ChordsChords v2TabsTabs v2Ukulele
Meg and Dia: Masterpiece (acoustic and live)
Tuning: E-A-D-G-B-e
" Meg and Dia masterpiece acoustic" and click on the third video down. This video will 
you understand how to play this tab. Thank you.

Intro and Verse:
e[-------------]
B[-------------]
G[-9-----------] X3 (strum each chord x8)
D[-9-9-11-9----]
A[-7-9-11-9----]
E[---7-9--7----]

 Pre-Chorus:
e[-------------]
B[-------------]
G[-------------] X2 (strum each chord X8)
D[-11-9-7-9----]
A[-11-9-7-9----]
E[-9--7-5-7----]

 Chorus Part1:
e[-------------]
B[-------------]
G[-9-----------] X1 (strum each chord X8)
D[-9-9-11-9----]
A[-7-9-11-9----]
E[---7-9--7----]

 Chorus Part2:
e[-------------]
B[-------------]
G[-9-----------]X1 (strum each chord x8)
D[-9-9-11-7----]
A[-7-9-11-7----]
E[---7-9--5----]
then:
e[---------------------------------------]
B[---------------------------------------]
G[-9-----------9-----11------------------] X1
D[-9(x8)-9-----x(x1)-x-(x4)-11-----9-----]
A[-7-----9(x4)-7-----9------11(x8)-9(x7)-]
E[-------7------------------9------7-----]

 Verse 2:
e[-0----------------------]
B[-0----------------------]
G[-1(x3?)--------9--------] X1 (strum each chord x8 besides the first chord)
D[-2------9-11-9-9-9-11-9-]
A[-2------9-11-9-7-9-11-9-]
E[-0------7-9--7---7-9--7-]

Play Chorus again

 Bridge Part1:
e[----------------------------------------]
B[----------------------------------------]
G[--------------------9-----11-----13-----] X1
D[-6-----11-----7-----9(x4)-x-(x4)-x-(x4)-]
A[-6(x8)-11(x8)-7(x8)-7-----9------11-----]
E[-4-----9------5-------------------------]

 Bridge Part2
e[---------------------------]
B[---------------------------]
G[--------------------9------] X1
D[-6-----11-----7-----9(x?)--]
A[-6(x8)-11(x8)-7(x8)-7------]
E[-4-----9------5------------]

Play Chorus again

Ourtro
e[---------------------------------------0-----]
B[---------------------------------------0-----]
G[-9-----------9-----11------------------1(x1)-]X1 THE END
D[-9(x8)-9-----x(x1)-x-(x4)-11-----9-----2-----]
A[-7-----9(x4)-7-----9------11(x8)-9(x8)-2-----]
E[-------7------------------9------7-----0-----]

Here it is! Enjoy!





Comments


Popular Meg And Dia tabs & chords
Courage Robert 2 Chords
Hug Me Chords
Nineteen Stars Chords
Sta Barbara Chords
What If Chords
Fighting For Nothing Tabs
Strawberry Waltz Intro Tabs
How Much Ukulele
Monster 2 Ukulele
Said And Done Ukulele


Song lyrics



↑ Back to top | Tablatures and chords are parodies/interpretations of the original songs. You may use it for private study, scholarship, research or language learning purposes only
© 2014 AZChords.com Contact us | Privacy policy | DMCA | Add/correct tabs | Request tabs | Top 50 tabs