» » »

Meg And Dia, Masterpiece Tabs (ver.1)

Artists:  A B C D E F G H I J K L M N O P Q R S T U V W X Y Z # 

Masterpiece Tabs (ver.1)

Meg And Dia Tabs
 Rating:
4/5 (9 votes)
Masterpiece lessons Tabs too difficult? Try these video lessons and learn fast
                Band: The Meg and Dia Band


This song sounds a lot better if played on acoustic.
The strumming of the song is pretty simple. You just have to listen to it to figure it out.


Intro and Verse
|-0---0---0---0---|
|-0---0---0---0---|
|-1---1---2---2---|   (x3)
|-2---1---4---4---|
|-2---2---4---3---|
|-x---x---x---x---|

Pre-Chorus
|-0---0---0---0---|
|-0---0---0---0---|
|-6---4---2---4---|   (x2)
|-6---4---2---4---|
|-4---2---0---2---|
|-x---x---x---x---|

Chorus
|-0---0---0---0---|
|-0---0---0---0---|
|-1---6---2---4---|   (x2)
|-2---6---2---4---|
|-2---4---0---2---|
|-x---x---x---x---|

Repeat

Brigde
|-0---0---0---0---|
|-0---0---0---0---|
|-6---4---2---1---|   (x2)
|-6---4---2---2---|
|-4---2---0---2---|
|-x---x---x---x---|

The last time you play the chorus changes a bit into this:
|-0---0---0---|---0---0---0---0---|
|-0---0---0---|---0---0---0---0---|
|-1---6---4---|---1---6---2---4---|
|-2---6---4---|---2---6---2---4---|
|-2---4---2---|---2---4---0---2---|
|-x---x---x---|---x---x---x---x---|

Outro
|-0---0---0---0---0~---|
|-0---0---0---0---0~---|
|-1---1---2---2---1~---|
|-2---1---4---4---2~---|
|-2---2---4---3---2~---|
|-x---x---x---x---x----|

And that's it. =]
            
Submit corrections

comments powered by Disqus
↑ Back to top | Meg And Dia Tabs for Masterpiece. Lyrics for acoustic guitar and electric guitar. Tablatures and chords are parodies/interpretations of the original songs. You may use it for private study, scholarship, research or language learning purposes only