» » »

Lessons In New Jersey Tabs (ver.3)

Artists:  A B C D E F G H I J K L M N O P Q R S T U V W X Y Z # 

Lessons In New Jersey Tabs (ver.3)

Meg And Dia
Rating:
4/5 (1 vote)

Hard to play? Try these video lessons and learn fast.
                -------------------------------------------------------------------------------
                             SONG NAME - Band Name
-------------------------------------------------------------------------------

Tuning:standard

e|------------------------10------------------------------------------------|
B|---------10--------13---------13----------x4----13-13--15--13-------------|
G|--------------------------------------------------------------------------|
D|--------------------------------------------------------------------------|
A|--------------------------------------------------------------------------|
E|--------------------------------------------------------------------------|

e|----15-----------------------------------------10---10-----10----10-------|
B|-------13--15--13---15/15---13-13h5--10-10---13---13---13-----13----------|
G|--------------------------------------------------------------------------|
D|--------------------------------------------------------------------------|
A|--------------------------------------------------------------------------|
E|--------------------------------------------------------------------------|

e|----------10--------------------------------15----------------------------|
B|---10--13----13----x4---13-13---15-13-x4-------13---15-13-x4--------------|
G|--------------------------------------------------------------------------|
D|--------------------------------------------------------------------------|
A|--------------------------------------------------------------------------|
E---------------------------------------------------------------------------|

e|---17---------------------15----------------------------------------------|
B|--------13---15--13-x2-------13---15--13---13--13--15-13------------------|
G|--------------------------------------------------------------------------|
D|--------------------------------------------------------------------------|
A|--------------------------------------------------------------------------|
E|--------------------------------------------------------------------------|

e|---------------------------------------------------------------------------|
B|---13-15-------------------------------------------------------------------|
G|-----------13-15-----------------------------------------------------------|
D|------------------13-16----------------------------------------------------|
A|------------------------13-16----------------------------------------------|
E|------------------------------13-16----------------------------------------|


| /  slide up
| \  slide down
| h  hammer-on
| p  pull-off
| ~  vibrato
| +  harmonic
| x  Mute note
===============================================================================
            
Hard to play? Try these video lessons and learn fast. | Correct




comments powered by Disqus
↑ Back to top | Tablatures and chords are parodies/interpretations of the original songs. You may use it for private study, scholarship, research or language learning purposes only