» » »

Lessons In New Jersey Tabs (ver.1)

Artists:  A B C D E F G H I J K L M N O P Q R S T U V W X Y Z # 

Lessons In New Jersey Tabs (ver.1)

Meg And Dia
Rating:
5/5 (1 vote)

Hard to play? Try these video lessons and learn fast.
                -------------------------------------------------------------------------------
-------------------------------------------------------------------------------

Tuning:standard

Hey guys! Lessons in New Jersey by Meg and Dia is a awesome song. I hadn't founf a 
tab of the song so i tabbed it out myself. I've been working on this song since some time 
year so ive spent alot of time on it. It may not be 100% right but its at least 99.9% right.
Corrections/ Comments welcome ^-^


Intro:
e|---------------------------------------------|
B|---------------------------------------------|
G|---------------------------------------------|
D|-9-7-9h--------------------------------------|
A|--------10-9-7-9---------------9-10-7--------|
E|----------------10-9-7-7-9-10--------9-10-9--|


e|-2--5--7--5--7--5--7--|
B|-3--5--7--5--7--5--7--|
G|-4--7--9--5--7--5--7--| 2X
D|-4--7--9--7--9--7--9--|
A|-2--5--7--7--9--7--9--|
E|-2--------5--7--5--7--|


e|-2--2-----2--|
B|-3--3--2--2--|
G|-4--2--2--2--|
D|-4-----2--4--|
A|-2--------4--|
E|-2--------2--|


e|-2--5--7--5--7--5--7--|
B|-3--5--7--5--7--5--7--|
G|-4--7--9--5--7--5--7--| 2X
D|-4--7--9--7--9--7--9--|
A|-2--5--7--7--9--7--9--|
E|-2--------5--7--5--7--|


e|-2--2-----2--3--2--3--2--3--2--3--|
B|-3--3--2--2--3--2--3--2--3--2--3--|
G|-4--2--2--2--3--2--3--2--3--2--3--|
D|-4-----2--4--5--4--5--4--5--4--5--|
A|-2--------4--5--4--5--4--5--4--5--|
E|-2--------2--3--2--3--2--3--2--3--|


e|-5--7--5--7--5--7--14--5--7--5--7--|
B|-5--7--5--7--5--7--15--5--7--5--7--|
G|-5--7--5--7--5--7--16--5--7--5--7--|
D|-7--9--7--9--7--9--16--7--9--7--9--|
A|-7--9--7--9--7--9--14--7--9--7--9--|
E|-5--7--5--7--5--7--14--5--7--5--7--|


e|---------------|
B|---------------|
G|-7-9-7-9h-7----|
D|------------9--|
A|---------------|
E|---------------|


e|-5--7--5--7--5--7--14--5--7--5--7--|
B|-5--7--5--7--5--7--15--5--7--5--7--|
G|-5--7--5--7--5--7--16--5--7--5--7--|
D|-7--9--7--9--7--9--16--7--9--7--9--|
A|-7--9--7--9--7--9--14--7--9--7--9--|
E|-5--7--5--7--5--7--14--5--7--5--7--|


e|-2--5--7--5--7--5--7--|
B|-3--5--7--5--7--5--7--|
G|-4--7--9--5--7--5--7--|
D|-4--7--9--7--9--7--9--|
A|-2--5--7--7--9--7--9--|
E|-2--------5--7--5--7--|


e|-2--5--7--9---7--5--4--|
B|-3--5--7--9---7--5--4--|
G|-4--7--9--11--9--7--6--|
D|-4--7--9--11--9--7--6--|
A|-2--5--7--9---7--5--4--|
E|-2---------------------|


e|-2--2-----2--|
B|-3--3--2--2--|
G|-4--2--2--2--| 2X
D|-4-----2--4--|
A|-2--------4--|
E|-2--------2--|


e|-5--7--5--7--5--7--3--2--|
B|-5--7--5--7--5--7--3--2--|
G|-5--7--5--7--5--7--3--2--| 3X
D|-7--9--7--9--7--9--5--4--|
A|-7--9--7--9--7--9--5--4--|
E|-5--7--5--7--5--7--3--2--|


e|-5--7--5--7--5--7--|
B|-5--7--5--7--5--7--|
G|-5--7--5--7--5--7--|
D|-7--9--7--9--7--9--|
A|-7--9--7--9--7--9--|
E|-5--7--5--7--5--7--|


e|-2-----|
B|-3--2--|
G|-4--2--| 5X
D|-4--2--|
A|-2-----|
E|-2-----|


e|-2--3--5--2--|
B|-2--3--5--3--|
G|-2--3--5--4--|
D|-4--5--7--4--|
A|-4--5--7--2--|
E|-2--3--5--2--|


e|-2--2--2--6--|
B|-3--2--3--6--|
G|-4--4--4--8--| 4X
D|-4--4--4--8--|
A|-2--2--2--6--|
E|-2--2--2-----|


e|-9---5--5--|
B|-9---5--5--|
G|-11--7--5--| 3X
D|-11--7--7--|
A|-9---5--7--|
E|--------5--|


e|-9--14--|
B|-9--15--|
G|-11-16--|
D|-11-16--|
A|-9--14--|
E|--------|


e|-2--2-----2--|
B|-3--3--2--2--|
G|-4--2--2--2--| 2X
D|-4-----2--4--|
A|-2--------4--|
E|-2--------2--|


Outro
e|---------------------------------------------------------------------2--|
B|-----------------------------------------------------^---------------3--|
G|---------------------------------------------------7-9-7-------------4--|
D|-9-7-9h--------------------------------------9-7-9-------9-7-7-9h-9--4--|
A|--------10-9-7-9---------------9-10-7--------------------------------2--|
E|-----------------10-9-7-7-9-10--------9-10-9-------------------------2--|


End

So I met a guy
He's from New Jersey
Took me out to get some food
What you do I asked I play the guitar
Well baby I play the guitar too

Do you have plans for Saturday
Do you think that you could watch me play
I don't know it depends on what's goin' on backstage

So we talked some more of scales and chords
And when I first attempted to
And he told me that's not the way to go
I said baby I don't get you

Don't you ever play what you feel inside
No baby I ain't got the time to figure out
what makes you smile or makes you tend to lie

So he started playing a melody
And wanted me to start soloing
I don't know quite what to do
He said pick it up and I'll help you through

Don't you ever play what you feel inside
No baby I ain't got the time to figure out
what makes you smile or makes you tend to lie

It's too late now
I'll show you how
Put that guitar down
Put that guitar down

Dadalaladada
Dadalaladadada [x4]

Time oh time it slips so fine
It kills me about every time
I decide that time has come
Figure I'll go get me some
That's not what your supposed to do
Don't dare go back the failures too
Maybe I'm a failure too so lets get on with it

Don't you ever play what you feel inside
No baby I ain't got the time to figure out
what makes you smile or makes you tend to lie
It's too late now
And I'll show you how
Put that guitar down
Put that guitar down

So I met a guy
He's from New Jersey
Learned a little more than I thought I would.
Love Me
Love Me
Love Me
Love Me
            
Hard to play? Try these video lessons and learn fast. | Correct




comments powered by Disqus
↑ Back to top | Tablatures and chords are parodies/interpretations of the original songs. You may use it for private study, scholarship, research or language learning purposes only