» » »

Meg And Dia, Just One Of Those Things Tabs (ver.1)

Artists:  A B C D E F G H I J K L M N O P Q R S T U V W X Y Z # 

Just One Of Those Things Tabs (ver.1)

Meg And Dia Tabs
 Rating:
4.3/5 (6 votes)
Just One Of Those Things lessons Tabs too difficult? Try these video lessons and learn fast
                Just One of Those Things
Meg & Dia
its in drop D but i think standard tuning is fine

Intro
|--0---0------------------------------0--|
|--3---3------------------------------0--|
|--4---2---11---9---12---11---9---7---4--|
|--4---0---x----x---x----x----x---x---5--|
|--2-------9----7---10---9----7---5---5--|
|--0----------------------------------3--|

Verse
|--0---0---0--|
|--3---3---0--|
|--4---2---4--|
|--4---0---5--|
|--2---0---5--|
|--0---0---3--|

Chorus
|--0---0---0---0--|
|--3---3---0---0--|
|--2---4---4---6--|
|--0---4---5---7--|
|--0---2---5---7--|
|--0---0---3---5--|

Bridge
|------------------------|
|------------------------|
|--11--6--7--14--12--11--|
|--x---x--x--x---x---x---|
|--9---4--5--12--10--9---|
|------------------------|

Outro
(i tried to tell you a million times that you have always been one of us...)
                                         last chord
|--0---0---0---0--|                       |--0--|
|--3---2---0---0--|                       |--3--|
|--4---3---4---6--|                       |--2--|
|--4---0---5---7--|                       |--0--|
|--2---0---5---7--|                       |--0--|
|--0---0---3---5--|                       |--0--|
            
Submit corrections

comments powered by Disqus
↑ Back to top | Meg And Dia Tabs for Just One Of Those Things. Lyrics for acoustic guitar and electric guitar. Tablatures and chords are parodies/interpretations of the original songs. You may use it for private study, scholarship, research or language learning purposes only