» » »

Meg And Dia, Joey Had A Smoke Tabs (ver.1)

Artists:  A B C D E F G H I J K L M N O P Q R S T U V W X Y Z # 

Joey Had A Smoke Tabs (ver.1)

Meg And Dia Tabs
 Rating:
3.6/5 (7 votes)
Joey Had A Smoke lessons Tabs too difficult? Try these video lessons and learn fast
1
                -------------------------------------------------------------------------------
                             Joey had a smoke – Meg & Dia
-------------------------------------------------------------------------------
Tuning: (Standard)EADGBe
Pedals used: Delay and Overdrive

My first tabbed song so here it is, not sure if it’s correct but e-mail me if there’s 
wrong with it so… enjoy

By the way no solo…sorry

Intro: Clean
e|---3h4p3----3h4p3------------6-8p6-----------------------------------------|
B|------------------------------8---8----------------4-7-6-0-----------------|
G|-------------------------------------5---5---5---5-----------8-8---5-5-----|
D|-------------------------------------6---6---6---6----------8--8---4-4-----|
A|-3--------3----------6h8p6-----------6—-6---6---6----------6---6--4--4-----|
E|-------------------6-----------------4-4---4---4-----------------6---6-----|

e|---------------------------------------------------------------------------|
B|---------------------------------------------------------------------------|
G|-13-13-12-12-10-10-8-8-----------------------------------------------------|
D|-xx-xx-xx-xx-xx-xx-x-x-(break)---------------------------------------------|
A|-11-11-10-10-8--8--6-6-----------------------------------------------------|
E|---------------------------------------------------------------------------|

Verse: Clean
e|---6--------6-------3---(fill)--------------------------------------------|
B|-----8--------8-------4---------------------------------------------------|
G|-5------------------------------------------------------------------------|
D|----------8-------2-------------------------------------------------------|x2
A|--------------------------------------------------------------------------|
E|--------------------------------------------------------------------------|
 (Fill) between verses
e|--6-8p6--------------------------------------------------------------------|
B|---8---8-------------------------------------------------------------------|
G|---------------------------------------------------------------------------|
D|---------------------------------------------------------------------------|
A|---------------------------------------------------------------------------|
E|---------------------------------------------------------------------------|

Pre-chorus Clean w/ delay
e|--------------------------------------------------------------------------|
B|-8-8-8-8-8-6-6-9-9-9-9-9-8-8-8-8-8-8-8-6-6-6-6-6--------------------------|
G|--------------------------------------------------------------------------|
D|--------------------------------------------------------------------------|x2
A|--------------------------------------------------------------------------|
E|--------------------------------------------------------------------------|

Chorus 1: Gain
e|---------------------------------------------------------------------------|
B|---------------------------------------------------------------------------|
G|-5-5-5---8-8-8-------------------------------------------------------------|
D|-5-5-5---8-8-8---6-6-6---8-8-8---------------------------------------------|
A|-3-3-3---6-6-6---6-6-6---8-8-8---------------------------------------------|
E|-----------------4-4-4---6-6-6---------------------------------------------|

e|---------------------------------------------------------------------------|
B|---------------------------------------------------------------------------|
G|-5----8--------------------------------------------------------------------|
D|-5(x8)8(x8)6----6-8-8-8-8-8------------------------------------------------|
A|-3----6----6(x8)6-8-8-8-8-8------------------------------------------------|
E|-----------4----4-6-6-6-6-6------------------------------------------------|
                      * * * *

Rhythm during solo: (not sure if its rite and sorry I haven’t figured out the solo yet 
me if u do)
e|------------------------------------------------------------------------|
B|------------------------------------------------------------------------|
G|-8-8-8-8/-7-7-10-8-7-5--------------------------------------------------|
D|-8-8-8-8/-7-7-10-8-7-5-8----6-------------------------------------------|(x2)
A|-6-6-6-6/-5-5-8--6-5-3-8(x8)6(x8)---------------------------------------|
E|-----------------------6----4-------------------------------------------|

Chorus 2 (Guitar 2: play Chorus 1)
e|------------------------------------------------------------------------|
B|------------------------------------------------------------------------|
G|-8-----7----10-----7----8-----7----13-----------------------------------|(x2)
D|-8(x12)7(x4)10(x12)7(x4)8(x12)7(x4)13(x12)------------------------------|
A|-6-----5----8------8----6-----5----11-----------------------------------|
E|------------------------------------------------------------------------|

Outro
e|---3h4p3----3h4p3------------6-8p6-----------------------------------------|
B|------------------------------8---8----------------4-7-6-0-----------------|
G|-------------------------------------5---5---5---5-----------8-8---5-55555~|
D|-------------------------------------6---6---6---6----------8--8---4-44444~|
A|-3--------3----------6h8p6-----------6—-6---6---6----------6---6--4--44444~|
E|-------------------6-----------------4-4---4---4-----------------6---66666~|
                                                                        ***
There it is…so L8ters

| /  slide up
| \  slide down
| h  hammer-on
| p  pull-off
| ~  vibrato
| *  palm mute
| x  Mute note
===============================================================================
            
Submit corrections

comments powered by Disqus
↑ Back to top | Meg And Dia Tabs for Joey Had A Smoke. Lyrics for acoustic guitar and electric guitar. 1 Tablatures and chords are parodies/interpretations of the original songs. You may use it for private study, scholarship, research or language learning purposes only