» » »

Meg And Dia, Getaways Turned Holidays Tabs (ver.2)

Artists:  A B C D E F G H I J K L M N O P Q R S T U V W X Y Z # 

Getaways Turned Holidays Tabs (ver.2)

Meg And Dia Tabs
Rating:
5/5 (1 vote)
Getaways Turned Holidays lessons Tabs too difficult? Try these video lessons and learn fast
                Meg & Dia - Getaways Turned Holidays
Tuning: Drop D
NOTE:Strumming motion is down ->down up down up down-> down up down up
The Entire chorus is played in this motion, except for interlude

This tab is very near 100% except for the end of the interlude and outro.

Intro:
e[----------------------------------------------------------------------:
B[------10-------10---------10--------10--------------------------------:
G[----9---9----9---9------9---9-----9---9-------------------------------:
D[--7--7-----7--7-------7--7------7--7------5-55555-5555--0-00000-0000--:
A[-9--------9----------7---------7----------5-55555-5555--0-00000-0000--:
D[------------------------------------------5-55555-5555--0-00000-0000--:


Verse: Its the same as the intro.
e[----------------------------------------------------------------------:
B[------10-------10---------10--------10--------------------------------:
G[----9---9----9---9------9---9-----9---9-------------------------------:
D[--7--7-----7--7-------7--7------7--7------5-55555-5555--0-00000-0000--:(x2)
A[-9--------9----------7---------7----------5-55555-5555--0-00000-0000--:
D[------------------------------------------5-55555-5555--0-00000-0000--:

Pre-Chorus: Make sure u play the 1st notes louder than the rest
e[------------------------------------------------------------:
B[------------------------------------------------------------:
G[------------------------------------------------------------:
D[-77-x-7777-777-00-x-0000-000-22-x-2222-222--00-x-0000-000---:
A[-77-x-7777-777-00-x-0000-000-22-x-2222-222--00-x-0000-000---:
D[-77-x-7777-777-00-x-0000-000-22-x-2222-222--00-x-0000-000---:

e[-----------------------------------------------------:
B[-----------------------------------------------------:
G[-----------------------------------------------------:
D[-77-x-7777-777-00-x-0000-000--5-555555555-7-777777777:
A[-77-x-7777-777-00-x-0000-000--5-555555555-7-777777777:
D[-77-x-7777-777-00-x-0000-000--5-555555555-7-777777777:

Chorus: (REMINDER) Strumming motion is down ->down up down up down-> down up down up
The Entire chorus is played in this motion
e[---------------------------------------------------------:
B[---------------------------------------------------------:
G[---------------------------------------------------------:
D[-0-00000-0000-7-77777-7777-7-77777-7777-7-77777-7777-----:
A[-0-00000-0000-7-77777-7777-5-55555-5555-5-55555-5555-----:
D[-0-00000-0000-7-77777-7777-5-55555-5555-5-55555-5555-----:

e[-------------------------------------------------------------------------:
B[-------------------------------------------------------------------------:
G[-------------------------------------------------------------------------:
D[-0-00000-0000-7-77777-7777-9-99999-9999-9-99999-2-22222222-444444444-0~~~:
A[-0-00000-0000-7-77777-7777-9-99999-9999-9-99999-2-22222222-444444444-0~~~:
D[-0-00000-0000-7-77777-7777-9-99999-9999-9-99999-2-22222222-444444444-0~~~:

Then Back to the beginning  (Verse -> Pre-chor -> Chorus) Except on chorus, the 0 note 
extended even longer to hold for interlude

Interlude: (Hold the last note of the chorus a long time before you play this)
e[----------------------------------:--------------------------------------:
B[----------------------------------:--------------------------------------:
G[(Played 2 times, 1st time palm muted):--(Then play this)-----------------:
D[22222222-44444444-5555555555555555:22222222--44444444--555555-55-55-55-55:
A[22222222-44444444-5555555555555555:22222222--44444444--555555-55-55-55-55:
D[22222222-44444444-5555555555555555:22222222--44444444--555555-55-55-55-55:

Ending Chorus (modified):
Then play this chorus like this: (same thing but have the 0 extended on 1 note/strike)
e[-----------------------------------------------------:
B[-----------------------------------------------------:
G[-----------------------------------------------------:
D[-0~~~~~7-77777-7777-7-77777-7777-7-77777-7777--------:
A[-0~~~~~7-77777-7777-5-55555-5555-5-55555-5555--------:
D[-0~~~~~7-77777-7777-5-55555-5555-5-55555-5555--------:

e[-----------------------------------------------:
B[-----------------------------------------------:
G[-----------------------------------------------:
D[-0-00000-0000-7-77777-7777-9-99999-9999-9-99999:
A[-0-00000-0000-7-77777-7777-9-99999-9999-9-99999:
D[-0-00000-0000-7-77777-7777-9-99999-9999-9-99999:

Outro:

e[---------------------------------------------:---------------------------:
B[---------------------------------------------:---------------------------:
G[---------------------------------------------:----(last note)------------:
D[-2-22222-2222--4-44444-4444-5-55555-5555-----:On Second time, end on--5~~:
A[-2-22222-2222--4-44444-4444-5-55555-5555 (x2):------------------------5~~:
D[-2-22222-2222--4-44444-4444-5-55555-5555-----:------------------------5~~:

ENJOY!
            
Submit corrections

comments powered by Disqus
↑ Back to top | Meg And Dia Tabs for Getaways Turned Holidays. Lyrics for acoustic guitar and electric guitar. Tablatures and chords are parodies/interpretations of the original songs. You may use it for private study, scholarship, research or language learning purposes only