>
 >
Cardigan Weather

Cardigan Weather Guitar Tabs

Meg And Dia - Cardigan Weather chords, tabs, tablatures, lyrics

Guitar lessons | Add/correct | Request | Top 50 tabs Artists:  A B C D E F G H I J K L M N O P Q R S T U V W X Y Z 0-9

Cardigan Weather Guitar Tabs – Meg And Dia

CD, Sheet music, Poster

Do you like Cardigan Weather? Share with your friends now
ChordsChords v2Chords v3TabsTabs v2Ukulele
Meg & Dia - Cardigan Weather
Album - "Something Real"

it's not completely right (2nd verse) but that's what i came up w/.
The solo is 100% right. 
( ) mean you don't have to play it.


Intro
 
e|------------------------|
B|--4--(4h5p4)------------|
G|--6--------(6-4-3)------|
D|--5---------------------|
A|--6---------------------|
E|------------------------|

Verse 
e|-----x-----------x-----------x-----------------------|
B|-----x---------9-x-9-9-9-----x--------4--4h5p4-------|
G|---4-x-4-4-4---9-x-9-9-9---4-x-4-4-4--6-------6-4-3--|
D|---4-x-4-4-4---9-x-9-9-9---4-x-4-4-4--5--------------|
A|-----x-----------x-----------x--------6--------------|
E|--4--x--4-4---0--x--0-0---4--x--4-4------------------|

e|-----x-----------x-----------x--------------------|
B|-----x---------9-x-9-9-9-----x--------------------|
G|---4-x-4-4-4---9-x-9-9-9---4-x-4-4-4-----99--99-9-|
D|---4-x-4-4-4---9-x-9-9-9---4-x-4-4-4-----99--99-9-|
A|-----x-----------x-----------x-----------xx--xx-x-|
E|--4--x--4-4---0--x--0-0---4--x--4-4------99--99-9-|


Chorus
e|----------------------------------------|
B|----------------------------------------|
G|----8---8---6---6----9---9---8---8------|
D|---7---7---7---7----6---6---6---6-------|
A|--6---6---6---6----7---7---7---7--------|
E|-7---7---7---7----0---0---0---0---------|
                                           
e|--------------------------------------|
B|----0---0----2---2----0---0----0---0--|
G|---3---3----3---3----1---1----0---0---|
D|--4---4----4---4----2---2----2---2----|
A|--------------------------------------|
E|-4---4----2---2----0---0----0---0-----|

e|----------------------------------------|
B|----------------------------------------|
G|----8---8---6---6----9---9---8---8------|
D|---7---7---7---7----6---6---6---6-------|
A|--6---6---6---6----7---7---7---7--------|
E|-7---7---7---7----0---0---0---0---------|
                                           
e|---------------------------------------------------|
B|----0---0----2---2----0---0---------4h5p4----------|
G|---3---3----3---3----1---1----0------------6--3--2-|
D|--4---4----4---4----2---2----2---------------------|
A|---------------------------------------------------|
E|-4---4----2---2----0---0----0----------------------|


Verse 2
e|-----x-----------x-----------x------------x------x----|
B|-----x---------9-x-9-9-9-----x------------x------x----|
G|---4-x-4-4-4---9-x-9-9-9---3-x-3-3-3----8-x-8--8-x-8--|
D|---4-x-4-4-4---9-x-9-9-9---4-x-4-4-4----9-x-9--9-x-9--|
A|-----x-----------x-----------x------------x------x----|
E|--4--x--4-4---0--x--0-0---2--x--2-2-----7--x---6-x----|

e|-----x-----------x-----------x-------------------|
B|-----x---------9-x-9-9-9-----x-------------------|
G|---4-x-4-4-4---9-x-9-9-9---4-x-4-4-4--99-99-9----|
D|---4-x-4-4-4---9-x-9-9-9---4-x-4-4-4--99-99-9----|
A|-----x-----------x-----------x--------xx-xx-x----|
E|--4--x--4-4---0--x--0-0---4--x--4-4---99-99-9----|

Chorus
e|----------------------------------------|
B|----------------------------------------|
G|----8---8---6---6----9---9---8---8------|
D|---7---7---7---7----6---6---6---6-------|
A|--6---6---6---6----7---7---7---7--------|
E|-7---7---7---7----0---0---0---0---------|

e|---------------------------------------|
B|----0---0----2---2----0---0----0---0---|
G|---3---3----3---3----1---1----0---0----|
D|--4---4----4---4----2---2----2---2-----|
A|---------------------------------------|
E|-4---4----2---2----0---0----0---0------|

e|----------------------------------------|
B|----------------------------------------|
G|----8---8---6---6----9---9---8---8------|
D|---7---7---7---7----6---6---6---6-------|
A|--6---6---6---6----7---7---7---7--------|
E|-7---7---7---7----0---0---0---0---------|

e|---------------------------------------|
B|----0---0----2---2----0---0----0---0---|
G|---3---3----3---3----1---1----0---0----|
D|--4---4----4---4----2---2----2---2-----|
A|---------------------------------------|
E|-4---4----2---2----0---0----0---0------|

During Solo: 
e|--------x----------------------------------------|
B|--------x----------------------------------------|
G|-444444-x-999999-999999--888/12-12-12------------|
D|-444444-x-999999-888888--999/13-13-13------------|
A|-xxxxxx-x-xxxxxx-xxxxxx--xxx/-x--x--x------------|
E|-444444-x-999999-999999--777/11-11-11------------|

e|--------x--------------------------------------------------|
B|--------x----------------------10-10-10--999999-88888888---|
G|-444444-x-9-9999999-999999-8-8-8--8--8---999999-99999999---|
D|-444444-x-9-9999999-888888-9-9-7--7--7---999999-99999999---|
A|-xxxxxx-x-x-xxxxxxx-xxxxxx-x-x-x--x--x---777777-77777777---|
E|-444444-x-9-9999999-999999-7-7-7--7--7---------------------|

e|--------|-----7h9-10-9-7h9------------0------|
B|--------|-----------------------------0~~~---|
G|-888888-|-13----------------13--------0~~~---|
D|-999999-|-14----------------14--------2~~~---|
A|-999999-|-14----------------14-(x6)---2~~~---|
E|-777777-|-12----------------12--------0------|


Solo:

e|---------------------------------------------------------|
B|-------------------------7--777/9--999--777--555--4------|
G|----------4-6--6/8--6--8---------------------------------|
D|------4-6------------------------------------------------|
A|--4-6----------------------------------------------------|
E|---------------------------------------------------------|

e|-------------------------------------------------------------|
B|--2/4--2--0--2/4--5--4---------------------------------------|
G|-----------------------4----------4-6---8/9--8----8/9--8-----|
D|------------------------------4-6--------------9---------9---|
A|--------------------------4-6--------------------------------|
E|-------------------------------------------------------------|

e|-----------------------------------|
B|-----------------------------------|
G|--11-----8--9--8-------13--11--11--|
D|-----11-----------11---------------|
A|-----------------------------------|
E|-----------------------------------|

e|------------|
B|------7-----|
G|--6h8-------|(x12)
D|------------|
A|------------|
E|------------|

e|--------7h9-10-9--7h9---------7--11----11-----7~----|
B|--9~-----------------------9--------9----9---8~-----|
G|--9~-----------------------------------------9~-----|
D|---------------------------------------------9~-----|
A|---------------------------------------------7~-----|
E|---------------------------------------------x------|



Chorus

e|----------------------------------------|
B|----------------------------------------|
G|----8---8---6---6----8---8---6---6------|
D|---7---7---7---7----6---6---6---6-------|
A|--6---6---6---6----7---7---7---7--------|
E|-7---7---7---7----0---0---0---0---------|

e|--------------------------------------|
B|----0---0----2---2----0---0----0---0--|
G|---3---3----3---3----1---1----0---0---|
D|--4---4----4---4----2---2----2---2----|
A|--------------------------------------|
E|-4---4----2---2----0---0----0---0-----|


(2nd guitar strums this while 1st guitar is still picking)
e|------------------------------------------|
B|------------------------------------------|
G|-88x-888x-888x-888x-888x-888x-888x-888x---|
D|-77x-777x-777x-777x-666x-666x-666x-666x---|
A|-66x-666x-666x-666x-777x-777x-777x-777x---|
E|-77x-777x-777x-777x-000x-000x-000x-000x---|

e|------------------------------------|4~---2~---0~~---|
B|-------------------0000000000000000-|4~---2~---0~~---|
G|----------33x-333x-1111111100000000-|4~---3~---1~~---|
D|-66x-666x-44x-444x-2222222222222222-|6~---4~---2~~---|
A|-66x-666x-44x-444x-xxxxxxxxxxxxxxxx-|6~---4~---x~~---|
E|-44x-444x-22x-222x------------------|4~---2~---x~~---|

Outro:
e|4~---2~---7~---|
B|4~---2~---8~---|
G|4~---3~---9~---|
D|6~---4~---9~---|
A|6~---4~---7~---|
E|4~---2~---x~---|





Comments


Popular Meg And Dia tabs & chords
Bored Of Your Love 3 Chords
Love Is Chords
Roses Chords
Sta Barbara Chords
What If Chords
Halloween Tabs
Masterpiece Tabs
Monster 1 Tabs
Santa Barbara 2 Tabs
Indiana Ukulele


Song lyrics



↑ Back to top | Tablatures and chords are parodies/interpretations of the original songs. You may use it for private study, scholarship, research or language learning purposes only
© 2014 AZChords.com Contact us | Privacy policy | DMCA | Add/correct tabs | Request tabs | Top 50 tabs