» » »

Breakdown Tabs (ver.1)

Artists:  A B C D E F G H I J K L M N O P Q R S T U V W X Y Z # 

Breakdown Tabs (ver.1)

Meg And Dia
Rating:
0/5 (0 votes)

Hard to play? Try these video lessons and learn fast.
                Breakdown- Meg and Dia

*This is one of my favorite songs from Cocoon. I’m not really sure if this is accurate.
Just heard it from the player. This is my first ever tab here. So just tell me what you think*
txt me: 09268779031 (Baguio City, Philippines)

Standard Tuning

Intro (guitar 1)

e|-------7----7----9--------|
B|----10---10---10----------|
G|--------------------------|  Repeat 8x
D|--------------------------|
A|--------------------------|
E|--------------------------|

Guitar 2

e|---------------------------------------------------------------------------|
B|---------------------------------------------------------------------------|
G|---------------------------------------------------------------------------|
D|--------------------------7-6-7-11-----------------------------------------|
A|---12-11-9/7-h9-7-7--------------------------------------------------------|
E|---------------------------------------------------------------------------|

Guitar 3-  A E Bm D (2x strumming)

Verse 1
A             E          Bm           D
You threw me out on the sidewalk last night,
A             E               Bm         D
You dumped my clothes out the window too.
A         E            Bm             D
I threw rocks at the glass panes and wood,
            A      E        Bm           D
We need to talk I needed a word with you.

Guitar 2 @ 00:32

e|--------------------------------------------------------------------------------------|
B|-----------------------------------------------------5--------------------------------|
G|--------------6------------6------------7-----------------------6------------6-6s7-6--|
D|-----6h7-6h7-------6h7-6h7------6h7-6h7------6h7-6h7-----6h7-6h7------6h7-6h7---------|
A|---7-------------7------------7------------7-----------7------------7-----------------|
E|--------------------------------------------------------------------------------------|

e|--------------------------------------------------------------------------------------|
B|-----------------------------------------------------5--------------------------------|
G|--------------6------------6------------7-----------------------6------------6-6s7s9--|
D|-----6h7-6h7-------6h7-6h7------6h7-6h7------6h7-6h7-----6h7-6h7------6h7-6h7---------|
A|---7-------------7------------7------------7-----------7------------7-----------------|
E|--------------------------------------------------------------------------------------|



A       E          Bm           D
We made up on the couch on the floor,
A        E         Bm            D
But you told me I needed to lose
A       E           Bm       D
A few pounds on the body I loved,
           A          E             Bm         D
I went to work and I talked with a man I grew up with.


Chorus: (Distortion in strumming)
He said,
A       E                          F#m     E           D
"Oh, a sad sight you are, you are slowly unraveling me.
A        E                          F#m         E           D
Oh, no tears on a Tuesday you need better than what he can give you.
F#m          E           D
Better than what he can give you."


 Chorus (Guitar 2 @ 00:56)
e|---------------------------------------------|
B|---------------------------------------------|
G|------------------------7-9---7-9-----6s7----|
D|---------------------11-----9-----7----------|
A|-9s12-11-9-7-----7s9-------------------------|
E|---------------------------------------------|

--------------------------------------------------------|
--------------------------------------------------------|
---------------------7-9---7-9—--6s7----7-9---7-9---6s7-|
------------------11-----9-----7----11-----9------7-----|
-12-11-9-7----7s9---------------------------------------|
--------------------------------------------------------|


Then Intro again except guitar 2 with a little difference :(guitar 1)

e|-------7----7----9--------|
B|----10---10---10----------|
G|--------------------------|  Repeat 8x
D|--------------------------|
A|--------------------------|
E|--------------------------|

Guitar 2

e|---------------------------------------------------------------------------|
B|---------------------------------------------------------------------------|
G|---------------------------------------------------------------------------|
D|-----------------------------7-6-7-11—11h12p11-----------------------------|
A|---12-11-9/7-h9-7-7-7s5-4--------------------------------------------------|
E|---------------------------------------------------------------------------|

Verse 2

A           E         Bm          D
He held me tight for longer than normal,
A           E       Bm           D
I cuddled close, I couldn't believe it.
A             E          Bm          D
He whispered words in my ear it was nice,
        A          E            Bm            D
But it wasn't the same when he called me the wrong name.

A      E            Bm              D
I ran off down the street down the corner,
        A       E            Bm      D
And he caught me in his arms.
A         E         Bm         D
And once again he delivered a comfort,
   A          E          Bm          D
A need I had known ever since I was young.

Guitar 2 @ 1:42

e|--------------------------------------------------------------------------------------|
B|-----------------------------------------------------5--------------------------------|
G|--------------6------------6------------7-----------------------6------------6-6s7-6--|



D|-----6h7-6h7-------6h7-6h7------6h7-6h7------6h7-6h7-----6h7-6h7------6h7-6h7---------| 2x
A|---7-------------7------------7------------7-----------7------------7-----------------|
E|--------------------------------------------------------------------------------------|

e|--------------------------------------------------------------------------------------|
B|-----------------------------------------------------5--------------------------------|
G|--------------6------------6------------7-----------------------6------------6-6s7s9--|
D|-----6h7-6h7-------6h7-6h7------6h7-6h7------6h7-6h7-----6h7-6h7------6h7-6h7---------|
A|---7-------------7------------7------------7-----------7------------7-----------------|
E|--------------------------------------------------------------------------------------|

Guitar 3 @ 1:52

e|------------------------------------------------------------------------------------------|
B|--1010h9—10h9—1010h9-10-------------------------------------------------------------------|
G|------------------------9-6---------------------------------------------------------------|
D|------------------------------------------------------------------------------------------|
A|------------------------------------------------------------------------------------------|
E|------------------------------------------------------------------------------------------|




Chorus 2:

He said,
A       E                            F#m      E          D
"Oh, a sweet sight you are, you are slowly unraveling me.
A         E                           F#m           E              D
Oh, I 'd kill for your heart. What a strange man indeed who would lose you.
    F#m          E              D
A strange man indeed who could lose you."

Chorus guitar2 @ 2:16:

e|-------------------------------------------------------|
B|-------------------------------------------------------|
G|------------------------7-9---7-9-----6s7--------------|
D|---------------------11-----9-----7--------------------|
A|-9s12-11-9-7-----7s9--------------------------12-11-9-7|
E|-------------------------------------------------------|

----------------------------------------------|
----------------------------------------------|
-----------7-9---7-9—--6s7----7-9---7-9---6s7-|
--------11-----9-----7----11-----9------7-----|
----7s9---------------------------------------|
----------------------------------------------|


Interlude: A E D 4x

@ 2:40 Guitar 2

e|-9----------9-9----------9-9----------9-9----------9—12h14--14-12--9-7---------------|
B|---10-12-10-----10-12-10-----10-12-10-----10-12-10-----------------------------------|
G|-------------------------------------------------------------------------------------|
D|-------------------------------------------------------------------------------------|
A|-------------------------------------------------------------------------------------|
E|-------------------------------------------------------------------------------------|

e|-9----------9-9----------9-9----------9-9----------9—12h14--14-14p12--9-7---------------------|
B|---10-12-10-----10-12-10-----10-12-10-----10-12-10------------------------12h14-14p12-----10--|
G|----------------------------------------------------------------------------------------9-----|
D|----------------------------------------------------------------------------------------------|
A|----------------------------------------------------------------------------------------------|
E|----------------------------------------------------------------------------------------------|

e|-9----------9-9----------9-9----------9-9----------9—12h14--14-12--9-7---------------|
B|---10-12-10-----10-12-10-----10-12-10-----10-12-10-----------------------------------|
G|-------------------------------------------------------------------------------------|
D|-------------------------------------------------------------------------------------|
A|-------------------------------------------------------------------------------------|
E|-------------------------------------------------------------------------------------|

e|-9----------9-9----------9-9----------9-9----------9—12h14—14p12--14-14s17—14s12-----|
B|---10-12-10-----10-12-10-----10-12-10-----10-12-10-----------------------------------|
G|-------------------------------------------------------------------------------------|
D|-------------------------------------------------------------------------------------|
A|-------------------------------------------------------------------------------------|
E|-------------------------------------------------------------------------------------|


Last Chorus (acoustic and a little plucking will do):

A hold     E hold                       F#m      E       D
Oh,     a sweet sight you are, you are slowly undoing me.
A        E                           F#m           E              D
Oh, I'd kill for your heart. What a strange man indeed who could lose you.
   F#m           E              D hold
A strange man indeed who could lose you.

*Whoa, that’s it guys… Did it for almost 2hrs. I admit it’s a little inaccurate
specially in the interlude part. Please forgive me for that … Anyway, this is my first
ever tab so forgive me if I’m wrong… . Hope you enjoy playing. Hear the song to
(Philippines only).And lastly, all thanks to Meg and Dia for such a wonderful song… *
-by Tets Duquez
            
Hard to play? Try these video lessons and learn fast. | Correct




comments powered by Disqus
↑ Back to top | Tablatures and chords are parodies/interpretations of the original songs. You may use it for private study, scholarship, research or language learning purposes only