» » »

Meg And Dia, Are There Gians Too In The Dance Tabs (ver.1)

Artists:  A B C D E F G H I J K L M N O P Q R S T U V W X Y Z # 

Are There Gians Too In The Dance Tabs (ver.1)

Meg And Dia Tabs
Rating:
2/5 (1 vote)
Are There Gians Too In The Dance lessons Tabs too difficult? Try these video lessons and learn fast
                Meg And Dia
Are There Giants Too In The Dance?
Here Here Here
2009

Key: Eb

Tuning: Standard EADGBe

Chords used:
G# -   466544
Cm -   x35543
EbM7 - x68786
Bb -   x13331
Eb -   x68886
G/B -  x254xx or x2x003
F/A -  x032xx
B -    x24442
Fm -   133111
Eb/G - 365xxx


Intro:
e|-8--8p6----6----------|
B|--------8-----8--6--8-|
G|----------------------|
D|----------------------|
A|----------------------|
E|----------------------|


Verse 1:
                                G#
You best be quick you've got to run
They're coming at you with their guns
                                  Cm
They're chasing at you with their jail
    G/B                             Eb(hold)
bars   Whoever thought we'd fall so far?
                                G#
You've got to learn to act like God
You rule the world you give the word
                             Cm  G/B
And if someone should fall behind
                                   Eb(hold)
Just let their suffering slip your mind


Chorus 1:
                 G#
Are there giants too in the
EbM7  Bb     G#
dance? Cause this is about life
                     EbM7
and life isn't about death
                 G#
Are there giants too in the
EbM7  Bb     G#
dance? Cause this is about life
                     EbM7
and life isn't about death


Verse 2:
                           G#
Help me escape from lonely choirs
Which only hollow voices sing
                         Cm
I wonder who decides who wins?
                      G/B
(Which ever people sublimate)
                         Bb  F/A G# B(hold)
In which we nodd in agreement


(Repeat Chorus 1)


Guitar Solo:

Guitar 1:
                         G#          B  Eb  Bb
e|-1h3--1-----1-|-----1h3--1-----1-|---|---|---|
B|---------4----|-1-----------4----|-0-|---|---|
G|--------------|------------------|---|-3-|---|
D|--------------|------------------|---|---|---|
A|--------------|------------------|---|---|---|
E|--------------|------------------|---|---|---|

              G#              B   Eb  Bb
e|-------------3------------|----|---|---|
B|---4----6---------6--4--6-|-0~-|---|---|
G|-5----5----5----5---------|----|---|---|
D|--------------------------|----|---|---|
A|--------------------------|----|---|---|
E|--------------------------|----|---|---|
              x2

      Cm          Fm          Eb/G          Fm
e|----------|------------|------------|-------------|
B|----------|------------|------------|-------------|
G|-x-x-5--5-|-----10--10-|-----12--12-|------10--10-|
D|-x-x-5--5-|-----10--10-|-----13--13-|------10--10-|
A|-x-x-3--3-|-x-x--8---8-|-x-x-10--10-|-x-x---8---8-|
E|----------|------------|------------|-------------|

Guitar 2: While doing Eb/G through Fm
e|-8/15~---11h13p11------------|
B|-------------------13h15-13~-|
G|-----------------------------|
D|-----------------------------|
A|-----------------------------|
E|-----------------------------|

Guitar 1: Very fast this time ! means pinch harmonic
                Cm                               Fm
e|---------------------------------|-6/10--8--8p6---------------|
B|-4/8--8-------------4/8--8p6---8-|--------------8p6h8p6h8-----|
G|---------8!------------------8---|--------------------------8-|
D|-------------8--10---------------|----------------------------|
A|---------------------------------|----------------------------|
E|---------------------------------|----------------------------|

                                 Eb/G
e|-6-----6-----6-----6-----6-----11---10h11---10h11---10h11---10h11---|
B|---8-----8-----8-----8------8-----8-------8-------8-------8-------8-|
G|-----8-----8-----8-----8--------------------------------------------|
D|--------------------------------------------------------------------|
A|--------------------------------------------------------------------|
E|--------------------------------------------------------------------|

                        Eb
e|-15-------15-------15-------15-------11--13--15~-|
B|----16-------16-------16-------16----------------|
G|-------15-------15-------15-------15-------------|
D|-------------------------------------------------|
A|-------------------------------------------------|
E|-------------------------------------------------|


Chorus 2:
                 Cm(hold)
Are there giants too in the
EbM7  Bb     G#
dance? Cause this is about life
                     EbM7
and life isn't about death
                 G#
Are there giants too in the
EbM7  Bb     G#
dance? Cause this is about life
                     EbM7
and life isn't about death


Outro: End on Eb(hold)
            

comments powered by Disqus
↑ Back to top | Meg And Dia Tabs for Are There Gians Too In The Dance. Lyrics for acoustic guitar and electric guitar. Tablatures and chords are parodies/interpretations of the original songs. You may use it for private study, scholarship, research or language learning purposes only