» » »

Meg And Dia, Agree To Disagree Tabs (ver.1)

Artists:  A B C D E F G H I J K L M N O P Q R S T U V W X Y Z # 

Agree To Disagree Tabs (ver.1)

Meg And Dia Tabs
Rating:
4/5 (3 votes)
Agree To Disagree lessons Tabs too difficult? Try these video lessons and learn fast
                -------------------------------------------------------------------------------
                             Agree to Disagree - Meg & Dia
-------------------------------------------------------------------------------


Tuning: Standard

Intro:

e|---------|
B|---------|
G|----9----|
D|----9----|
A|-7--7----|
E|---------| X3

e|-------------|
B|-------------|
G|-------------|
D|-------------|
A|-------------|
E|-7--9--11----|

e|---------|
B|---------|
G|----9----|
D|----9----|
A|-7--7----|
E|---------| X3

e|-------------|
B|-------------|
G|-------------|
D|-------------|
A|-------------|
E|-7--9--11----|


Verse:

E C#m A B


Pre Chorus:

C#m E

e|-----------------------------|
B|-----------------------------|
G|-----------------------------|
D|-----------------------------|
A|-7--9--9/11--9--7------------|
E|-----------------------------|


e|----------------------------------|
B|----------------------------------|
G|----------------------------------|
D|----------------------------------|
A|-----4-----------4------7-7/9-7~--|
E|-5-7---7-5---5-7---7-5------------|


Chorus:

E C#m A B


Solo:

e|---------------------------------------|
B|-9-7---7h9---9-9---9-7---7h9---9-9-----|
G|-----9-----------------9---------------|
D|---------------------------------------|
A|---------------------------------------|
E|---------------------------------------|


Pick up and down
e|-----------------------|
B|-14-13-12-10-9-8-------|
G|-----------------11-9--|
D|-----------------------|
A|-----------------------|
E|-----------------------|

e|-------------------------------------|
B|-11-9-9h11-9----9h11---11------------|
G|---------------------9----9/11--7~---|
D|-------------------------------------|
A|-------------------------------------|
E|-------------------------------------|




===============================================================================
            
Submit corrections

comments powered by Disqus
↑ Back to top | Meg And Dia Tabs for Agree To Disagree. Lyrics for acoustic guitar and electric guitar. Tablatures and chords are parodies/interpretations of the original songs. You may use it for private study, scholarship, research or language learning purposes only