>
 >
Skull Level 1-2

Skull Level 1-2 Guitar Tabs

Megaman 2 - Skull Level 1-2 chords, tabs, tablatures, lyrics

Guitar lessons | Add/correct | Request | Top 50 tabs Artists:  A B C D E F G H I J K L M N O P Q R S T U V W X Y Z 0-9

Skull Level 1-2 Guitar Tabs – Megaman 2

CD, Sheet music, Poster

Do you like Skull Level 1-2? Share with your friends now
Tabs
E||---------------------------|--------------------------|
B||---------------------------|--------------------------|
G||---------------------------|-----------------1-----1--|
D||----2-2-2--2-2-2-----------|--2--2-2-2----------4-----|
A||------------------4----4-4-|------------4-------------|
E||---------------------------|--------------------------|


                                                                            
--------------------------|---------------------|--------------------------|
--------------------------|---------------------|--------------------------|
-----------------------1--|---------------------|-----------------------1--|
----2-2-2--2-2-2----------|----4----2----4------|----4-4-4--4-4-4--1-------|
------------------4-------|---------------------|--------------------------|
--------------------------|---------------------|--------------------------|


                                                                        
----------------------|-------4--7--6--------|-------4--7--6-----7--9--|
----------------------|----2-----------------|-------------------------|
----------------------|----------------------|----6--------------------|
----4----2----1-------|----------------------|-------------------------|
-------------------4--|----------------------|-------------------------|
----------------------|----------------------|-------------------------|


                                                       
---------------------------|--------------------------|
---------------------------|--------------------------|
---------------------------|-----------------1-----1--|
---------------------------|--2--2-2-2----------4-----|
----7-7-7--7-7-7--4----4-4-|------------4-------------|
---------------------------|--------------------------|


                                                                            
--------------------------|---------------------|--------------------------|
--------------------------|---------------------|--------------------------|
-----------------------1--|---------------------|-----------------------1--|
----2-2-2--2-2-2----------|----4----2----4------|----4-4-4--4-4-4--1-------|
------------------4-------|---------------------|--------------------------|
--------------------------|---------------------|--------------------------|


                                                                        
----------------------|-------4--7--6--------|-------4--7--6-----7--9--|
----------------------|----2-----------------|-------------------------|
----------------------|----------------------|----6--------------------|
----4----2----1-------|----------------------|-------------------------|
-------------------4--|----------------------|-------------------------|
----------------------|----------------------|-------------------------|


                                                                    
--------------7--12--|----9-----7-----9------|--7--------7--9------|
---------------------|-----------------------|---------------------|
---------------------|-----------------------|---------------------|
---------------------|-----------------------|---------------------|
---------------------|-----------------------|---------------------|
---------------------|-----------------------|---------------------|


                                                                             
------------------------7--|--9------------7--12--|----9-----7-----9-----7--|
--9--10--9-----------9-----|----------------------|-------------------------|
------------9-----9--------|----------------------|-------------------------|
---------------------------|----------------------|-------------------------|
---------------------------|----------------------|-------------------------|
---------------------------|----------------------|-------------------------|


                                                
----------7--4--7--8--|----8--8--11--16--------|
----------------------|------------------------|
----------------------|------------------------|
----------------------|------------------------|
----------------------|------------------------|
----------------------|------------------------|


                                                             
---------------------------------|--------------------------|
---------------------------------|--------------------------|
---------------------------------|--------------------------|
---------------------------------|-----------------6--4--6--|
---------------------------------|--7--7-7-7--4-------------|
----12-12-12--12-12-12--9----9-9-|--------------------------|


                                                                            
--------------------------|---------------------|--------------------------|
--------------------------|---------------------|--------------------------|
--------------------------|---------------------|-----------------------1--|
-----------------------6--|----4----2----4------|----4-4-4--4-4-4--1-------|
----7-7-7--7-7-7--4-------|---------------------|--------------------------|
--------------------------|---------------------|--------------------------|


                                                                        
----------------------|-------4--7--6--------|-------4--7--6-----7--9--|
----------------------|----2-----------------|-------------------------|
----------------------|----------------------|----6--------------------|
----4----2----1-------|----------------------|-------------------------|
-------------------4--|----------------------|-------------------------|
----------------------|----------------------|-------------------------|


                                                       
---------------------------|--------------------------|
---------------------------|--------------------------|
---------------------------|-----------------1-----1--|
---------------------------|--2--2-2-2----------4-----|
----7-7-7--7-7-7--4----4-4-|------------4-------------|
---------------------------|--------------------------|


                                                                            
--------------------------|---------------------|--------------------------|
--------------------------|---------------------|--------------------------|
-----------------------1--|---------------------|-----------------------1--|
----2-2-2--2-2-2----------|----4----2----4------|----4-4-4--4-4-4--1-------|
------------------4-------|---------------------|--------------------------|
--------------------------|---------------------|--------------------------|


                                                                        
----------------------|-------4--7--6--------|-------4--7--6-----7--9--|
----------------------|----2-----------------|-------------------------|
----------------------|----------------------|----6--------------------|
----4----2----1-------|----------------------|-------------------------|
-------------------4--|----------------------|-------------------------|
----------------------|----------------------|-------------------------|


                                                                   
--------------7--12--|----9----7-----9------|--7--------7--9------|
---------------------|----------------------|---------------------|
---------------------|----------------------|---------------------|
---------------------|----------------------|---------------------|
---------------------|----------------------|---------------------|
---------------------|----------------------|---------------------|


                                                                             
------------------------7--|--9------------7--12--|----9-----7-----9-----7--|
--9--10--9-----------9-----|----------------------|-------------------------|
------------9-----9--------|----------------------|-------------------------|
---------------------------|----------------------|-------------------------|
---------------------------|----------------------|-------------------------|
---------------------------|----------------------|-------------------------|


                                                                           
----------7--4--7--8--|----8--8--11--16---------|-------------------------|
----------------------|-------------------------|----------------------0--|
----------------------|-------------------------|-------------------6-----|
----------------------|-------------------------|-------------------7--6--|
----------------------|----------------------7--|----6--7--6--7-----------|
----------------------|----------------------8--|----7--9--7--9-----------|


                                                                         
-------------------------|----------------------|-----------------------|
-------------------------|----------------------|-----------------------|
----2-----1--------------|----------------------|-----------------------|
----4-----2-----4-----4--|----6--6----6------4--|----6--6----6----4--2--|
----------------6-----6--|----7--7----7------6--|----7--7----7----6--4--|
-------------------------|----------------------|-----------------------|


                                                                         
-------------------------|-----------------------|----------------------|
-------------------2--0--|-----------------------|----------------------|
-------------------2--1--|----2-----1------------|----------------------|
----2--2--1--2-----------|----4-----2-----4------|--1--2--1-------------|
----4--4--2--4-----------|----------------6------|--2--4--2--4----------|
-------------------------|-----------------------|-----------4----------|


                                                                          
------------------|---------------------------|--------------------------|
------------------|---------------------------|--------------------------|
------------------|---------------------------|-----------------1-----1--|
------------------|----2-2-2--2-2-2-----------|--2--2-2-2----------4-----|
------------------|------------------4----4-4-|------------4-------------|
------------------|---------------------------|--------------------------|


                                                                            
--------------------------|---------------------|--------------------------|
--------------------------|---------------------|--------------------------|
-----------------------1--|---------------------|-----------------------1--|
----2-2-2--2-2-2----------|----4----2----4------|----4-4-4--4-4-4--1-------|
------------------4-------|---------------------|--------------------------|
--------------------------|---------------------|--------------------------|


                                                                        
----------------------|-------4--7--6--------|-------4--7--6-----7--9--|
----------------------|----2-----------------|-------------------------|
----------------------|----------------------|----6--------------------|
----4----2----1-------|----------------------|-------------------------|
-------------------4--|----------------------|-------------------------|
----------------------|----------------------|-------------------------|


                                                       
---------------------------|--------------------------|
---------------------------|--------------------------|
---------------------------|-----------------1-----1--|
---------------------------|--2--2-2-2----------4-----|
----7-7-7--7-7-7--4----4-4-|------------4-------------|
---------------------------|--------------------------|


                                                                            
--------------------------|---------------------|--------------------------|
--------------------------|---------------------|--------------------------|
-----------------------1--|---------------------|-----------------------1--|
----2-2-2--2-2-2----------|----4----2----4------|----4-4-4--4-4-4--1-------|
------------------4-------|---------------------|--------------------------|
--------------------------|---------------------|--------------------------|


                                                                        
----------------------|-------4--7--6--------|-------4--7--6-----7--9--|
----------------------|----2-----------------|-------------------------|
----------------------|----------------------|----6--------------------|
----4----2----1-------|----------------------|-------------------------|
-------------------4--|----------------------|-------------------------|
----------------------|----------------------|-------------------------|


                                                                         
--------------------------|----------------------|-------4--7--6--------|
--------------------------|----------------------|----2-----------------|
--------------------------|----------------------|----------------------|
-----------------------6--|----4----2----1-------|----------------------|
----9-9-9--9-9-9--6-------|-------------------4--|----------------------|
--------------------------|----------------------|----------------------|


                                                      
-------4--7--6-----7--9--|---------------------------|
-------------------------|---------------------------|
----6--------------------|---------------------------|
-------------------------|---------------------------|
-------------------------|----7-7-7--7-7-7--4----4-4-|
-------------------------|---------------------------|


                                                                            
--------------------------|--------------------------|---------------------|
--------------------------|--------------------------|---------------------|
-----------------1-----1--|-----------------------1--|---------------------|
--2--2-2-2----------4-----|----2-2-2--2-2-2----------|----4----2----4------|
------------4-------------|------------------4-------|---------------------|
--------------------------|--------------------------|---------------------|


                                                                         
--------------------------|----------------------|-------4--7--6--------|
--------------------------|----------------------|----2-----------------|
-----------------------1--|----------------------|----------------------|
----4-4-4--4-4-4--1-------|----4----2----1-------|----------------------|
--------------------------|-------------------4--|----------------------|
--------------------------|----------------------|----------------------|


                                                                        
-------4--7--6-----7--9--|--------------7--12--|----9-----7-----9------|
-------------------------|---------------------|-----------------------|
----6--------------------|---------------------|-----------------------|
-------------------------|---------------------|-----------------------|
-------------------------|---------------------|-----------------------|
-------------------------|---------------------|-----------------------|


                                                                         
--7--------7--9------|------------------------7--|--9------------7--12--|
---------------------|--9--10--9-----------9-----|----------------------|
---------------------|------------9-----9--------|----------------------|
---------------------|---------------------------|----------------------|
---------------------|---------------------------|----------------------|
---------------------|---------------------------|----------------------|


                                                                          
----9-----7-----9-----7--|----------7--4--7--8--|----8--8--11--16--------|
-------------------------|----------------------|------------------------|
-------------------------|----------------------|------------------------|
-------------------------|----------------------|------------------------|
-------------------------|----------------------|------------------------|
-------------------------|----------------------|------------------------|


                                                             
---------------------------------|--------------------------|
---------------------------------|--------------------------|
---------------------------------|--------------------------|
---------------------------------|-----------------6--4--6--|
---------------------------------|--7--7-7-7--4-------------|
----12-12-12--12-12-12--9----9-9-|--------------------------|


                                                                            
--------------------------|---------------------|--------------------------|
--------------------------|---------------------|--------------------------|
--------------------------|---------------------|-----------------------1--|
-----------------------6--|----4----2----4------|----4-4-4--4-4-4--1-------|
----7-7-7--7-7-7--4-------|---------------------|--------------------------|
--------------------------|---------------------|--------------------------|


                                                                        
----------------------|-------4--7--6--------|-------4--7--6-----7--9--|
----------------------|----2-----------------|-------------------------|
----------------------|----------------------|----6--------------------|
----4----2----1-------|----------------------|-------------------------|
-------------------4--|----------------------|-------------------------|
----------------------|----------------------|-------------------------|


                                                       
---------------------------|--------------------------|
---------------------------|--------------------------|
---------------------------|-----------------1-----1--|
---------------------------|--2--2-2-2----------4-----|
----7-7-7--7-7-7--4----4-4-|------------4-------------|
---------------------------|--------------------------|


                                                                            
--------------------------|---------------------|--------------------------|
--------------------------|---------------------|--------------------------|
-----------------------1--|---------------------|-----------------------1--|
----2-2-2--2-2-2----------|----4----2----4------|----4-4-4--4-4-4--1-------|
------------------4-------|---------------------|--------------------------|
--------------------------|---------------------|--------------------------|


                                                                        
----------------------|-------4--7--6--------|-------4--7--6-----7--9--|
----------------------|----2-----------------|-------------------------|
----------------------|----------------------|----6--------------------|
----4----2----1-------|----------------------|-------------------------|
-------------------4--|----------------------|-------------------------|
----------------------|----------------------|-------------------------|


                                                                   
--------------7--12--|----9----7-----9------|--7--------7--9------|
---------------------|----------------------|---------------------|
---------------------|----------------------|---------------------|
---------------------|----------------------|---------------------|
---------------------|----------------------|---------------------|
---------------------|----------------------|---------------------|


                                                                             
------------------------7--|--9------------7--12--|----9-----7-----9-----7--|
--9--10--9-----------9-----|----------------------|-------------------------|
------------9-----9--------|----------------------|-------------------------|
---------------------------|----------------------|-------------------------|
---------------------------|----------------------|-------------------------|
---------------------------|----------------------|-------------------------|


                                                                               
----------7--4--7--8--|--9-----------11--16---------|-------------------------|
----------------------|--13--13--13-----------------|----------------------0--|
----------------------|--17-------------------------|-------------------6-----|
----------------------|-----------------------------|-------------------7--6--|
----------------------|--------------------------7--|----6--7--6--7-----------|
----------------------|--------------------------8--|----7--9--7--9-----------|


                                                                         
-------------------------|----------------------|-----------------------|
-------------------------|----------------------|-----------------------|
----2-----1--------------|----------------------|-----------------------|
----4-----2-----4-----4--|----6--6----6------4--|----6--6----6----4--2--|
----------------6-----6--|----7--7----7------6--|----7--7----7----6--4--|
-------------------------|----------------------|-----------------------|


                                                                         
-------------------------|-----------------------|----------------------|
-------------------2--0--|-----------------------|----------------------|
-------------------2--1--|----2-----1------------|----------------------|
----2--2--1--2-----------|----4-----2-----4------|--1--2--1-------------|
----4--4--2--4-----------|----------------6------|--2--4--2--4----------|
-------------------------|-----------------------|-----------4----------|


                                                                           
-------------------------|-------------------------|----------------------|
-------------------2--0--|-------------------------|----------------------|
-------------------2--1--|----2-----1--------------|----------------------|
----1--2--1--2-----------|----4-----2-----4-----4--|----6--6----6------4--|
----2--4--2--4-----------|----------------6-----6--|----7--7----7------6--|
-------------------------|-------------------------|----------------------|


                                                                          
-----------------------|-------------------------|-----------------------|
-----------------------|-------------------2--0--|-----------------------|
-----------------------|-------------------2--1--|----2-----1------------|
----6--6----6----4--2--|----2--2--1--2-----------|----4-----2-----4------|
----7--7----7----6--4--|----4--4--2--4-----------|----------------6------|
-----------------------|-------------------------|-----------------------|


                                                                           
----------------------|-------------------------|-------------------------|
----------------------|-------------------2--0--|-------------------------|
----------------------|-------------------2--1--|----2-----1--------------|
--1--2--1-------------|----1--2--1--2-----------|----4-----2-----4-----4--|
--2--4--2--4----------|----2--4--2--4-----------|----------------6-----6--|
-----------4----------|-------------------------|-------------------------|


                                                                         
----------------------|-----------------------|-------------------------|
----------------------|-----------------------|-------------------2--0--|
----------------------|-----------------------|-------------------2--1--|
----6--6----6------4--|----6--6----6----4--2--|----2--2--1--2-----------|
----7--7----7------6--|----7--7----7----6--4--|----4--4--2--4-----------|
----------------------|-----------------------|-------------------------|


                                                                          
-----------------------|----------------------|--------------------------|
-----------------------|----------------------|--0-----------------------|
----2-----1------------|----------------------|--1--2-----1--------------|
----4-----2-----4------|--1--2--1-------------|-----4-----2-----4-----4--|
----------------6------|--2--4--2--4----------|-----------------6-----6--|
-----------------------|-----------4----------|--------------------------|


                                                                         
----------------------|-----------------------|-------------------------|
----------------------|-----------------------|-------------------2--0--|
----------------------|-----------------------|-------------------2--1--|
----6--6----6------4--|----6--6----6----4--2--|----2--2--1--2-----------|
----7--7----7------6--|----7--7----7----6--4--|----4--4--2--4-----------|
----------------------|-----------------------|-------------------------|


                                                                         
-----------------------|----------------------|-------------------------|
-----------------------|----------------------|-------------------2--0--|
----2-----1------------|----------------------|-------------------2--1--|
----4-----2-----4------|--1--2--1-------------|----1--2--1--2-----------|
----------------6------|--2--4--2--4----------|----2--4--2--4-----------|
-----------------------|-----------4----------|-------------------------|


                                                                         
-------------------------|----------------------|-----------------------|
-------------------------|----------------------|-----------------------|
----2-----1--------------|----------------------|-----------------------|
----4-----2-----4-----4--|----6--6----6------4--|----6--6----6----4--2--|
----------------6-----6--|----7--7----7------6--|----7--7----7----6--4--|
-------------------------|----------------------|-----------------------|


                                                                         
-------------------------|-----------------------|----------------------|
-------------------2--0--|-----------------------|----------------------|
-------------------2--1--|----2-----1------------|----------------------|
----2--2--1--2-----------|----4-----2-----4------|--1--2--1-------------|
----4--4--2--4-----------|----------------6------|--2--4--2--4----------|
-------------------------|-----------------------|-----------4----------|


                                                                            
-------------------------|-------------------------|-----------------------|
-------------------2--0--|-------------------------|-----------------------|
-------------------2--1--|----2-----1--------------|-----------------------|
----1--2--1--2-----------|----4-----2-----4-----4--|----6--6----6----4--2--|
----2--4--2--4-----------|----------------6-----6--|----7--7----7----6--4--|
-------------------------|-------------------------|-----------------------|


                                                                         
-------------------------|-----------------------|----------------------|
-------------------2--0--|-----------------------|----------------------|
-------------------2--1--|----2-----1------------|----------------------|
----2--2--1--2-----------|----4-----2-----4------|--1--2--1-------------|
----4--4--2--4-----------|----------------6------|--2--4--2--4----------|
-------------------------|-----------------------|-----------4----------|


                                                                            
-------------------------|-------------------------|-----------------------|
-------------------2--0--|-------------------------|-----------------------|
-------------------2--1--|----2-----1--------------|-----------------------|
----1--2--1--2-----------|----4-----2-----4-----4--|----6--6----6----4--2--|
----2--4--2--4-----------|----------------6-----6--|----7--7----7----6--4--|
-------------------------|-------------------------|-----------------------|


                                                                         
-------------------------|-----------------------|----------------------|
-------------------2--0--|-----------------------|----------------------|
-------------------2--1--|----2-----1------------|----------------------|
----2--2--1--2-----------|----4-----2-----4------|--1--2--1-------------|
----4--4--2--4-----------|----------------6------|--2--4--2--4----------|
-------------------------|-----------------------|-----------4----------|


                                                                            
-------------------------|-------------------------|-----------------------|
-------------------2--0--|-------------------------|-----------------------|
-------------------2--1--|----2-----1--------------|-----------------------|
----1--2--1--2-----------|----4-----2-----4-----4--|----6--6----6----4--2--|
----2--4--2--4-----------|----------------6-----6--|----7--7----7----6--4--|
-------------------------|-------------------------|-----------------------|


                                                                             
-------------------------|-----------------------|----------------------|---|
-------------------2--0--|-----------------------|----------------------|---|
-------------------2--1--|----2-----1------------|----------------------|---|
----2--2--1--2-----------|----4-----2-----4------|--1--2--1-------------|---|
----4--4--2--4-----------|----------------6------|--2--4--2--4----------|---|
-------------------------|-----------------------|-----------4----------|---|





Comments


Popular Megaman 2 tabs & chords
Boss Theme Tabs
Bubble Mans Theme Tabs
Crash Mans Theme Tabs
Ending Theme Tabs
Flash Mans Theme Tabs
Heat Mans Theme Tabs
Metal Mans Theme Tabs
Password Theme Tabs
Quick Mans Theme Tabs
Wood Mans Theme Tabs


Song lyrics



↑ Back to top | Tablatures and chords are parodies/interpretations of the original songs. You may use it for private study, scholarship, research or language learning purposes only
© 2014 AZChords.com Contact us | Privacy policy | DMCA | Add/correct tabs | Request tabs | Top 50 tabs