» » »

Megaman 2, Quick Mans Tabs (ver.1)

Artists:  A B C D E F G H I J K L M N O P Q R S T U V W X Y Z # 

Quick Mans Tabs (ver.1)

Megaman 2 Tabs
 Rating:
4/5 (4 votes)
Quick Mans lessons Tabs too difficult? Try these video lessons and learn fast
1
                (Theme)
MX ID: SpADeD

Guitar 1:                                                             
E||-----8-----8-----8--------8--|-----8-----8-----8-------8-|
B||--8-----------8-----8--------|--8-----------8-----8------|
G||-------8---------------8-----|--------8-------------8----|
D||-----------------------------|---------------------------|
A||-----------------------------|---------------------------|
E||-----------------------------|---------------------------|


                                                         
------6----6-----6-------6-|------6-----6-----6-------6-|
---6----------6-----6------|---6-----------6-----6------|
--------7-------------7----|---------7-------------7----|
---------------------------|----------------------------|
---------------------------|----------------------------|
---------------------------|----------------------------|


                                                          
------8----8-----8--------8-|------8-----8-----8-------8-|
---8----------8-----8-------|---8-----------8-----8------|
--------8--------------8----|---------8-------------8----|
----------------------------|----------------------------|
----------------------------|----------------------------|
----------------------------|----------------------------|


                                                          
------6----6-----6--------6--|------------6-10-13--------|
---6----------6-----6--------|---------6-----------------|
--------7--------------7-----|-----5-7-------------------|
-----------------------------|---8-----------------------|
-----------------------------|---------------------------|
-----------------------------|---------------------------|


                                                                           
------------------------------------|-------------------------------------|
------13-----13------13----------13-|-------13-----13------13----------13-|
---12------------12------12---------|---12-------------12------12---------|
---------13------------------13-----|----------13------------------13-----|
------------------------------------|-------------------------------------|
------------------------------------|-------------------------------------|


                                                                           
-------------------------------------|------------------------------------|
-------11------11------11---------11-|-------11-----11------11---------11-|
---10--------------10------10--------|---10-------------10------10--------|
-----------12-----------------12-----|----------12-----------------12-----|
-------------------------------------|------------------------------------|
-------------------------------------|------------------------------------|


                                                                          
------------------------------------|------------------------------------|
-------13-----13------13---------13-|-------13-----13------13---------13-|
---12-------------12------12--------|---12-------------12------12--------|
----------13-----------------13-----|----------13-----------------13-----|
------------------------------------|------------------------------------|
------------------------------------|------------------------------------|


                                                                             
--------------------------------------|-------------------------------------|
-------11------11------11----------11-|------11------11------11---------11--|
---10--------------10------10---------|--10--------------10------10---------|
-----------12-----------------12------|----------12-----------------12------|
--------------------------------------|-------------------------------------|
--------------------------------------|-------------------------------------|
                                                                            


                                                          
--3--8-----8-----8--------8--|-----8-----8-----8-------8-|
--------------8-----8--------|--8-----------8-----8------|
-------8---------------8-----|--------8-------------8----|
-----------------------------|---------------------------|
-----------------------------|---------------------------|
-----------------------------|---------------------------|


                                                         
------6----6-----6-------6-|------6-----6-----6-------6-|
---6----------6-----6------|---6-----------6-----6------|
--------7-------------7----|---------7-------------7----|
---------------------------|----------------------------|
---------------------------|----------------------------|
---------------------------|----------------------------|


                                                          
------8----8-----8--------8-|------8-----8-----8-------8-|
---8----------8-----8-------|---8-----------8-----8------|
--------8--------------8----|---------8-------------8----|
----------------------------|----------------------------|
----------------------------|----------------------------|
----------------------------|----------------------------|


                                                          
------6----6-----6--------6--|------------6-10-13--------|
---6----------6-----6--------|---------6-----------------|
--------7--------------7-----|-----5-7-------------------|
-----------------------------|---8-----------------------|
-----------------------------|---------------------------|
-----------------------------|---------------------------|


                                                                           
------------------------------------|-------------------------------------|
------13-----13------13----------13-|-------13-----13------13----------13-|
---12------------12------12---------|---12-------------12------12---------|
---------13------------------13-----|----------13------------------13-----|
------------------------------------|-------------------------------------|
------------------------------------|-------------------------------------|


                                                                           
-------------------------------------|------------------------------------|
-------11------11------11---------11-|-------11-----11------11---------11-|
---10--------------10------10--------|---10-------------10------10--------|
-----------12-----------------12-----|----------12-----------------12-----|
-------------------------------------|------------------------------------|
-------------------------------------|------------------------------------|


                                                                          
------------------------------------|------------------------------------|
-------13-----13------13---------13-|-------13-----13------13---------13-|
---12-------------12------12--------|---12-------------12------12--------|
----------13-----------------13-----|----------13-----------------13-----|
------------------------------------|------------------------------------|
------------------------------------|------------------------------------|


                                                                             
--------------------------------------|-------------------------------------|
-------11------11------11----------11-|------11------11------11---------11--|
---10--------------10------10---------|--10--------------10------10---------|
-----------12-----------------12------|----------12-----------------12------|
--------------------------------------|-------------------------------------|
--------------------------------------|-------------------------------------|
                                                                            

                                                          
--3--8-----8-----8--------8--|-----8-----8-----8-------8-|
--------------8-----8--------|--8-----------8-----8------|
-------8---------------8-----|--------8-------------8----|
-----------------------------|---------------------------|
-----------------------------|---------------------------|
-----------------------------|---------------------------|


                                                         
------6----6-----6-------6-|------6-----6-----6-------6-|
---6----------6-----6------|---6-----------6-----6------|
--------7-------------7----|---------7-------------7----|
---------------------------|----------------------------|
---------------------------|----------------------------|
---------------------------|----------------------------|


                                                                               
------8----8-----8--------8-|------8-----8-----8-------8-|-------------------||
---8----------8-----8-------|---8-----------8-----8------|-------------------||
--------8--------------8----|---------8-------------8----|-------------------||
----------------------------|----------------------------|-------------------||
----------------------------|----------------------------|-------------------||
----------------------------|----------------------------|-------------------||

Guitar 2:
-15-13-11-13-11-10-11-|--10-8-10-8-6-8-6-4-6-4-3-4-3-1-3-1-|
----------------------|------------------------------------|
----------------------|------------------------------------|
----------------------|------------------------------------|
----------------------|------------------------------------|
----------------------|------------------------------------|

                                                                      
--3--------3---4---8--|--6-------------6----|--7--------7---10---13--|
----------------------|-----------8---------|------------------------|
----------------------|---------------------|------------------------|
----------------------|---------------------|------------------------|
----------------------|---------------------|------------------------|
----------------------|---------------------|------------------------|

--11---------11--10--8--6-|--4--------4--3--1----|--6--------6--4--3----|
--------------------------|----------------------|----------------------|
--------------------------|----------------------|----------------------|
--------------------------|----------------------|----------------------|
--------------------------|----------------------|----------------------|
--------------------------|----------------------|----------------------|
            
Submit corrections

comments powered by Disqus
↑ Back to top | Megaman 2 Tabs for Quick Mans. Lyrics for acoustic guitar and electric guitar. 1 Tablatures and chords are parodies/interpretations of the original songs. You may use it for private study, scholarship, research or language learning purposes only