>
 >
Crash Mans Theme

Crash Mans Theme Guitar Tabs

Megaman 2 - Crash Mans Theme chords, tabs, tablatures, lyrics

Guitar lessons | Add/correct | Request | Top 50 tabs Artists:  A B C D E F G H I J K L M N O P Q R S T U V W X Y Z 0-9

Crash Mans Theme Guitar Tabs – Megaman 2

CD, Sheet music, Poster

Do you like Crash Mans Theme? Share with your friends now
Tabs

                                                                
E||----------|-----------------------|-------------------------|
B||----------|-----------------------|-------------------------|
G||----------|--0------------------0-|---0-0--0-------------0--|
D||----------|---------2--3----4-----|-----------2--3----4-----|
A||----------|-----------------------|-------------------------|
E||----------|-----------------------|-------------------------|


                                                    
-----------------------|-----------------15--15----|
-----------------------|---------------------------|
--0------------------0-|---0-0--0------------------|
---------2--3----4-----|-----------2--3------------|
-----------------------|---------------------------|
-----------------------|---------------------------|


                                                                      
----------------------------|------------------15-15--15-17-18-17-15-|
----------------------------|----------------------------------------|
----------------------------|----------------------------------------|
----------------------------|----------------------------------------|
----------------------------|----------------------------------------|
--15------12--13----14---15-|---15-15--15--12------------------------|


                                                                  
--------------------------|--15--15--15--15--15---15-17-18-17-15-|
--------------------------|--------------------------------------|
--------------------------|--------------------------------------|
--------------------------|--------------------------------------|
--------------------------|--------------------------------------|
--15------12--13----14----|--------------------------------------|


                                                              
--------------13----12---10-|---10-10--10--10--13----12--11--|
--15------15----------------|--------------------------------|
----------------------------|--------------------------------|
----------------------------|--------------------------------|
----------------------------|--------------------------------|
----------------------------|--------------------------------|


                                                            
--10------10--13----12---10-|---10-10--10--10----15--15----|
----------------------------|------------------------------|
----------------------------|------------------------------|
----------------------------|------------------------------|
----------------------------|------------------------------|
----------------------------|------------------------------|


                                                              
--------------13----12---10-|---10-10--10--10--13----12--11--|
--15------15----------------|--------------------------------|
----------------------------|--------------------------------|
----------------------------|--------------------------------|
----------------------------|--------------------------------|
----------------------------|--------------------------------|


                                                            
--10------10--13----12---10-|---10-10--10--10----15--15----|
----------------------------|------------------------------|
----------------------------|------------------------------|
----------------------------|------------------------------|
----------------------------|------------------------------|
----------------------------|------------------------------|


                                                                
------------------------------------|--------------------------|
------------------------------------|------------------10------|
--16----16---16-16--16--16-14-12-14-|----12--------12------12--|
------------------------------------|--------------------------|
------------------------------------|--------------------------|
------------------------------------|--------------------------|


                                                      
--------------------------10--|------------15--15----|
--12----12---12-13--12--------|----------------------|
------------------------------|----------------------|
------------------------------|----------------------|
------------------------------|----------------------|
------------------------------|----------------------|


                                                                
------------------------------------|--------------------------|
--15----15---15-15--15--15-13-12-13-|----12--------12--13--12--|
------------------------------------|--------------------------|
------------------------------------|--------------------------|
------------------------------------|--------------------------|
------------------------------------|--------------------------|


                                                      
--10----10---10-12--10----13--|------------15--15----|
------------------------------|----------------------|
------------------------------|----------------------|
------------------------------|----------------------|
------------------------------|----------------------|
------------------------------|----------------------|


                                                                
--15----15---15-15--15--15-12-10-12-|----10--------10--12--10--|
------------------------------------|--------------------------|
------------------------------------|--------------------------|
------------------------------------|--------------------------|
------------------------------------|--------------------------|
------------------------------------|--------------------------|


                                                      
--15----15---15-17--15----18--|------------15--15----|
------------------------------|----------------------|
------------------------------|----------------------|
------------------------------|----------------------|
------------------------------|----------------------|
------------------------------|----------------------|


                                                                
--19----19---19-19--19--19-17-15-17-|----15--------15--17--15--|
------------------------------------|--------------------------|
------------------------------------|--------------------------|
------------------------------------|--------------------------|
------------------------------------|--------------------------|
------------------------------------|--------------------------|


                                                                
--19----19---19-20--19----22--|-------------19-22-24----22-24--|
------------------------------|----------20----------24--------|
------------------------------|--------------------------------|
------------------------------|--------------------------------|
------------------------------|--------------------------------|
------------------------------|--------------------------------|


                                                              
----------------------------|--------------------------------|
----------------------------|------------------18----17--16--|
--------------22----21---19-|---19-19--19--19----------------|
--24------24----------------|--------------------------------|
----------------------------|--------------------------------|
----------------------------|--------------------------------|


                                                            
--------------13----12---10-|---10-10--10--10----15--15----|
--15------15----------------|------------------------------|
----------------------------|------------------------------|
----------------------------|------------------------------|
----------------------------|------------------------------|
----------------------------|------------------------------|


                                                              
--------------13----12---10-|---10-10--10--10--13----12--11--|
--15------15----------------|--------------------------------|
----------------------------|--------------------------------|
----------------------------|--------------------------------|
----------------------------|--------------------------------|
----------------------------|--------------------------------|


                                                            
--10------10--13----12---10-|---10-10--10--10----15--15----|
----------------------------|------------------------------|
----------------------------|------------------------------|
----------------------------|------------------------------|
----------------------------|------------------------------|
----------------------------|------------------------------|


                                                           
--12----12---12-12--------12--|--10--------8--8--8-10--10-|
--------------------13--------|---------------------------|
------------------------------|---------------------------|
------------------------------|---------------------------|
------------------------------|---------------------------|
------------------------------|---------------------------|


                                                           
--12----12---12-12--------12--|--10--------8--8--8-10--10-|
--------------------13--------|---------------------------|
------------------------------|---------------------------|
------------------------------|---------------------------|
------------------------------|---------------------------|
------------------------------|---------------------------|


                                                           
--12----12---12-12--------12--|--10--------8--8--8-10--10-|
--------------------13--------|---------------------------|
------------------------------|---------------------------|
------------------------------|---------------------------|
------------------------------|---------------------------|
------------------------------|---------------------------|


                                                              
--12----12---12-12--15----12--|--10-10--15-15--19-19---------|
------------------------------|------------------------------|
------------------------------|------------------------------|
------------------------------|------------------------------|
------------------------------|------------------------------|
------------------------------|------------------------------|


                                                              
----------------------------|------------------13----12--11--|
--------------18----17---15-|---15-15--15--15----------------|
--19------19----------------|--------------------------------|
----------------------------|--------------------------------|
----------------------------|--------------------------------|
----------------------------|--------------------------------|


                                                            
--10------10--13----12---10-|---10-10--10--10----15--15----|
----------------------------|------------------------------|
----------------------------|------------------------------|
----------------------------|------------------------------|
----------------------------|------------------------------|
----------------------------|------------------------------|


                                                              
--------------13----12---10-|---10-10--10--10--13----12--11--|
--15------15----------------|--------------------------------|
----------------------------|--------------------------------|
----------------------------|--------------------------------|
----------------------------|--------------------------------|
----------------------------|--------------------------------|


                                                            
--10------10--13----12---10-|---10-10--10--10----15--15----|
----------------------------|------------------------------|
----------------------------|------------------------------|
----------------------------|------------------------------|
----------------------------|------------------------------|
----------------------------|------------------------------|


                                                                
------------------------------------|--------------------------|
------------------------------------|------------------10------|
--16----16---16-16--16--16-14-12-14-|----12--------12------12--|
------------------------------------|--------------------------|
------------------------------------|--------------------------|
------------------------------------|--------------------------|


                                                      
--------------------------10--|------------15--15----|
--12----12---12-13--12--------|----------------------|
------------------------------|----------------------|
------------------------------|----------------------|
------------------------------|----------------------|
------------------------------|----------------------|


                                                                
------------------------------------|--------------------------|
--15----15---15-15--15--15-13-12-13-|----12--------12--13--12--|
------------------------------------|--------------------------|
------------------------------------|--------------------------|
------------------------------------|--------------------------|
------------------------------------|--------------------------|


                                                      
--10----10---10-12--10----13--|------------15--15----|
------------------------------|----------------------|
------------------------------|----------------------|
------------------------------|----------------------|
------------------------------|----------------------|
------------------------------|----------------------|


                                                                
--15----15---15-15--15--15-12-10-12-|----10--------10--12--10--|
------------------------------------|--------------------------|
------------------------------------|--------------------------|
------------------------------------|--------------------------|
------------------------------------|--------------------------|
------------------------------------|--------------------------|


                                                      
--15----15---15-17--15----18--|------------15--15----|
------------------------------|----------------------|
------------------------------|----------------------|
------------------------------|----------------------|
------------------------------|----------------------|
------------------------------|----------------------|


                                                                
--19----19---19-19--19--19-17-15-17-|----15--------15--17--15--|
------------------------------------|--------------------------|
------------------------------------|--------------------------|
------------------------------------|--------------------------|
------------------------------------|--------------------------|
------------------------------------|--------------------------|


                                                                
--19----19---19-20--19----22--|-------------19-22-24----22-24--|
------------------------------|----------20----------24--------|
------------------------------|--------------------------------|
------------------------------|--------------------------------|
------------------------------|--------------------------------|
------------------------------|--------------------------------|


                                                              
----------------------------|--------------------------------|
----------------------------|------------------18----17--16--|
--------------22----21---19-|---19-19--19--19----------------|
--24------24----------------|--------------------------------|
----------------------------|--------------------------------|
----------------------------|--------------------------------|


                                                            
--------------13----12---10-|---10-10--10--10----15--15----|
--15------15----------------|------------------------------|
----------------------------|------------------------------|
----------------------------|------------------------------|
----------------------------|------------------------------|
----------------------------|------------------------------|


                                                              
--------------13----12---10-|---10-10--10--10--13----12--11--|
--15------15----------------|--------------------------------|
----------------------------|--------------------------------|
----------------------------|--------------------------------|
----------------------------|--------------------------------|
----------------------------|--------------------------------|


                                                            
--10------10--13----12---10-|---10-10--10--10----15--15----|
----------------------------|------------------------------|
----------------------------|------------------------------|
----------------------------|------------------------------|
----------------------------|------------------------------|
----------------------------|------------------------------|


                                                           
--12----12---12-12--------12--|--10--------8--8--8-10--10-|
--------------------13--------|---------------------------|
------------------------------|---------------------------|
------------------------------|---------------------------|
------------------------------|---------------------------|
------------------------------|---------------------------|


                                                           
--12----12---12-12--------12--|--10--------8--8--8-10--10-|
--------------------13--------|---------------------------|
------------------------------|---------------------------|
------------------------------|---------------------------|
------------------------------|---------------------------|
------------------------------|---------------------------|


                                                           
--12----12---12-12--------12--|--10--------8--8--8-10--10-|
--------------------13--------|---------------------------|
------------------------------|---------------------------|
------------------------------|---------------------------|
------------------------------|---------------------------|
------------------------------|---------------------------|


                                                              
--12----12---12-12--15----12--|--10-10--15-15--19-19---------|
------------------------------|------------------------------|
------------------------------|------------------------------|
------------------------------|------------------------------|
------------------------------|------------------------------|
------------------------------|------------------------------|


                                                              
----------------------------|------------------13----12--11--|
--------------18----17---15-|---15-15--15--15----------------|
--19------19----------------|--------------------------------|
----------------------------|--------------------------------|
----------------------------|--------------------------------|
----------------------------|--------------------------------|


                                                             
--10------10--13----12---10-|---10-10--10--10----15--15----||
----------------------------|------------------------------||
----------------------------|------------------------------||
----------------------------|------------------------------||
----------------------------|------------------------------||
----------------------------|------------------------------||


Lower Octave Version:

                                    
                                                                
E||----------|-----------------------|-------------------------|
B||----------|-----------------------|-------------------------|
G||----------|-----------------------|-------------------------|
D||----------|-----------------------|-------------------------|
A||----------|-----------------------|-------------------------|
E||----------|--3------0--1----2---3-|---3-3--3--0--1----2--3--|


                                                                          
-----------------------|-----------------3--3----|-----------------------|
-----------------------|-------------------------|-----------------------|
-----------------------|-------------------------|-----------------------|
-----------------------|-------------------------|-----------------------|
-----------------------|-------------------------|-----------------------|
--3------0--1----2---3-|---3-3--3--0--1----------|--3------0--1----2---3-|


                                                     
--------------3-3--3-5-6-5-3-|----------------------|
-----------------------------|----------------------|
-----------------------------|----------------------|
-----------------------------|----------------------|
-----------------------------|----------------------|
---3-3--3--0-----------------|--3------0--1----2----|


                                                                               
--3--3--3--3--3---3-5-6-5-3-|------------1----0-----|--------------1----0-----|
----------------------------|--3------3-----------3-|---3-3--3--3----------4--|
----------------------------|-----------------------|-------------------------|
----------------------------|-----------------------|-------------------------|
----------------------------|-----------------------|-------------------------|
----------------------------|-----------------------|-------------------------|


                                                                         
------------1----0-----|----------------3--3----|------------1----0-----|
--3------3-----------3-|---3-3--3--3------------|--3------3-----------3-|
-----------------------|------------------------|-----------------------|
-----------------------|------------------------|-----------------------|
-----------------------|------------------------|-----------------------|
-----------------------|------------------------|-----------------------|


                                                                           
--------------1----0-----|------------1----0-----|----------------3--3----|
---3-3--3--3----------4--|--3------3-----------3-|---3-3--3--3------------|
-------------------------|-----------------------|------------------------|
-------------------------|-----------------------|------------------------|
-------------------------|-----------------------|------------------------|
-------------------------|-----------------------|------------------------|


                                                                            
---------------------------|----------------------|------------------------|
--0----0---0-0--0--0-------|----------------------|--0----0---0-1--0----3--|
---------------------2-0-2-|----0--------0--2--0--|------------------------|
---------------------------|----------------------|------------------------|
---------------------------|----------------------|------------------------|
---------------------------|----------------------|------------------------|


                                                                        
------------3--3----|---------------------------|----------------------|
--------------------|--3----3---3-3--3--3-1-0-1-|----0--------0--1--0--|
--------------------|---------------------------|----------------------|
--------------------|---------------------------|----------------------|
--------------------|---------------------------|----------------------|
--------------------|---------------------------|----------------------|


                                                                          
-------------0-------1--|------------3--3----|--3----3---3-3--3--3-0---0-|
--3----3---3----3-------|--------------------|-----------------------3---|
------------------------|--------------------|---------------------------|
------------------------|--------------------|---------------------------|
------------------------|--------------------|---------------------------|
------------------------|--------------------|---------------------------|


                                                                     
----------------0-----|--3----3---3-5--3----6--|------------3--3----|
----3--------3-----3--|------------------------|--------------------|
----------------------|------------------------|--------------------|
----------------------|------------------------|--------------------|
----------------------|------------------------|--------------------|
----------------------|------------------------|--------------------|


                                                                             
--7----7---7-7--7--7-5-3-5-|----3--------3--5--3--|--7----7---7-8--7----10--|
---------------------------|----------------------|-------------------------|
---------------------------|----------------------|-------------------------|
---------------------------|----------------------|-------------------------|
---------------------------|----------------------|-------------------------|
---------------------------|----------------------|-------------------------|


                                                              
------------7-10-15----10-15-19-|----------------------------|
----------8---------12----------|----------------------------|
--------------------------------|----------------------------|
--------------------------------|--------------15----14---12-|
--------------------------------|--17------17----------------|
--------------------------------|----------------------------|


                                                                                
------------------------------|-----------------------|----------------3--3----|
------------------------------|------------6----5---3-|---3-3--3--3------------|
------------------10----9--8--|--7------7-------------|------------------------|
---12-12--12--12--------------|-----------------------|------------------------|
------------------------------|-----------------------|------------------------|
------------------------------|-----------------------|------------------------|


                                                                          
------------1----0-----|--------------1----0-----|------------1----0-----|
--3------3-----------3-|---3-3--3--3----------4--|--3------3-----------3-|
-----------------------|-------------------------|-----------------------|
-----------------------|-------------------------|-----------------------|
-----------------------|-------------------------|-----------------------|
-----------------------|-------------------------|-----------------------|


                                                                           
----------------3--3----|--0----0---0-0-------0--|------------------------|
---3-3--3--3------------|----------------1-------|--3--------1--1--1-3--3-|
------------------------|------------------------|------------------------|
------------------------|------------------------|------------------------|
------------------------|------------------------|------------------------|
------------------------|------------------------|------------------------|


                                                                           
--0----0---0-0-------0--|------------------------|--0----0---0-0-------0--|
----------------1-------|--3--------1--1--1-3--3-|----------------1-------|
------------------------|------------------------|------------------------|
------------------------|------------------------|------------------------|
------------------------|------------------------|------------------------|
------------------------|------------------------|------------------------|


                                                                           
------------------------|--0----0---0-0--3----0--|-------3-3--7-7---------|
--3--------1--1--1-3--3-|------------------------|--3-3-------------------|
------------------------|------------------------|------------------------|
------------------------|------------------------|------------------------|
------------------------|------------------------|------------------------|
------------------------|------------------------|------------------------|


                                                                          
-----------------------|--------------1----0-----|------------1----0-----|
------------6----5---3-|---3-3--3--3----------4--|--3------3-----------3-|
--7------7-------------|-------------------------|-----------------------|
-----------------------|-------------------------|-----------------------|
-----------------------|-------------------------|-----------------------|
-----------------------|-------------------------|-----------------------|


                                                                           
----------------3--3----|------------1----0-----|--------------1----0-----|
---3-3--3--3------------|--3------3-----------3-|---3-3--3--3----------4--|
------------------------|-----------------------|-------------------------|
------------------------|-----------------------|-------------------------|
------------------------|-----------------------|-------------------------|
------------------------|-----------------------|-------------------------|


                                                                             
------------1----0-----|----------------3--3----|---------------------------|
--3------3-----------3-|---3-3--3--3------------|--0----0---0-0--0--0-------|
-----------------------|------------------------|---------------------2-0-2-|
-----------------------|------------------------|---------------------------|
-----------------------|------------------------|---------------------------|
-----------------------|------------------------|---------------------------|


                                                                     
----------------------|------------------------|------------3--3----|
----------------------|--0----0---0-1--0----3--|--------------------|
----0--------0--2--0--|------------------------|--------------------|
----------------------|------------------------|--------------------|
----------------------|------------------------|--------------------|
----------------------|------------------------|--------------------|


                                                                            
---------------------------|----------------------|-------------0-------1--|
--3----3---3-3--3--3-1-0-1-|----0--------0--1--0--|--3----3---3----3-------|
---------------------------|----------------------|------------------------|
---------------------------|----------------------|------------------------|
---------------------------|----------------------|------------------------|
---------------------------|----------------------|------------------------|


                                                                        
------------3--3----|--3----3---3-3--3--3-0---0-|----------------0-----|
--------------------|-----------------------3---|----3--------3-----3--|
--------------------|---------------------------|----------------------|
--------------------|---------------------------|----------------------|
--------------------|---------------------------|----------------------|
--------------------|---------------------------|----------------------|


                                                                          
--3----3---3-5--3----6--|------------3--3----|--7----7---7-7--7--7-5-3-5-|
------------------------|--------------------|---------------------------|
------------------------|--------------------|---------------------------|
------------------------|--------------------|---------------------------|
------------------------|--------------------|---------------------------|
------------------------|--------------------|---------------------------|


                                                 
----3--------3--5--3--|--7----7---7-8--7----10--|
----------------------|-------------------------|
----------------------|-------------------------|
----------------------|-------------------------|
----------------------|-------------------------|
----------------------|-------------------------|


                                                              
------------7-10-15----10-15-19-|----------------------------|
----------8---------12----------|----------------------------|
--------------------------------|----------------------------|
--------------------------------|--------------15----14---12-|
--------------------------------|--17------17----------------|
--------------------------------|----------------------------|


                                                                                
------------------------------|-----------------------|----------------3--3----|
------------------------------|------------6----5---3-|---3-3--3--3------------|
------------------10----9--8--|--7------7-------------|------------------------|
---12-12--12--12--------------|-----------------------|------------------------|
------------------------------|-----------------------|------------------------|
------------------------------|-----------------------|------------------------|


                                                                          
------------1----0-----|--------------1----0-----|------------1----0-----|
--3------3-----------3-|---3-3--3--3----------4--|--3------3-----------3-|
-----------------------|-------------------------|-----------------------|
-----------------------|-------------------------|-----------------------|
-----------------------|-------------------------|-----------------------|
-----------------------|-------------------------|-----------------------|


                                                                           
----------------3--3----|--0----0---0-0-------0--|------------------------|
---3-3--3--3------------|----------------1-------|--3--------1--1--1-3--3-|
------------------------|------------------------|------------------------|
------------------------|------------------------|------------------------|
------------------------|------------------------|------------------------|
------------------------|------------------------|------------------------|


                                                                           
--0----0---0-0-------0--|------------------------|--0----0---0-0-------0--|
----------------1-------|--3--------1--1--1-3--3-|----------------1-------|
------------------------|------------------------|------------------------|
------------------------|------------------------|------------------------|
------------------------|------------------------|------------------------|
------------------------|------------------------|------------------------|


                                                                           
------------------------|--0----0---0-0--3----0--|-------3-3--7-7---------|
--3--------1--1--1-3--3-|------------------------|--3-3-------------------|
------------------------|------------------------|------------------------|
------------------------|------------------------|------------------------|
------------------------|------------------------|------------------------|
------------------------|------------------------|------------------------|


                                                                          
-----------------------|--------------1----0-----|------------1----0-----|
------------6----5---3-|---3-3--3--3----------4--|--3------3-----------3-|
--7------7-------------|-------------------------|-----------------------|
-----------------------|-------------------------|-----------------------|
-----------------------|-------------------------|-----------------------|
-----------------------|-------------------------|-----------------------|


                          
----------------3--3----||
---3-3--3--3------------||
------------------------||
------------------------||
------------------------||
------------------------||





Comments


Popular Megaman 2 tabs & chords
Boss Theme Tabs
Bubble Mans Theme Tabs
Ending Theme Tabs
Flash Mans Theme Tabs
Heat Mans Theme Tabs
Metal Mans Theme Tabs
Password Theme Tabs
Quick Mans Theme Tabs
Skull Level 1-2 Tabs
Wood Mans Theme Tabs


Song lyrics



↑ Back to top | Tablatures and chords are parodies/interpretations of the original songs. You may use it for private study, scholarship, research or language learning purposes only
© 2014 AZChords.com Contact us | Privacy policy | DMCA | Add/correct tabs | Request tabs | Top 50 tabs