» » »

Megaman, Ice Mans Tabs (ver.1)

Artists:  A B C D E F G H I J K L M N O P Q R S T U V W X Y Z # 

Ice Mans Tabs (ver.1)

Megaman Tabs
 Rating:
4/5 (4 votes)
Ice Mans lessons Tabs too difficult? Try these video lessons and learn fast
1
                (Theme)
E|-------------------------------------1-17--------------------------|
B|-------------------------------------------------------------------|
G|-----------0---------------0---------------------------------------|
D|-----2-3-4---4-3-2---2-3-4---4-3-2---0-----------------------------|
A|---3---------------3---------------1-----------------------5-6-7-8-|
E|------------------------------------------12-13-12-11-10-6---------|


                                                                   
----------------0---------------0---------------------------------|
----------2-3-4---4-3-2---2-3-4---4-3-2---0-1-2-3-2-1-0---0-1-2-3-|
--7-6-5-3---------------3---------------1---------------1---------|


                                                                   
----------------0---------------0---------------------------------|
--2-1-0---2-3-4---4-3-2---2-3-4---4-3-2---0-1-2-3-2-1-0---0-1-2-3-|
--------3---------------3---------------1---------------1---------|


                                                                   
----------------0---------------0---------------------------------|
--2-1-0---2-3-4---4-3-2---2-3-4---4-3-2---0-1-2-3-2-1-0---0-1-2-3-|
--------3---------------3---------------1---------------1---------|


                                                                     
-------------------------------|-----3--3-3-1-3-0-3-8--6-6-8-6-10-6-|
-------------------------0-1-2-|--3--------------------------8------|
----------------0--1-2-3-------|------------------------------------|
--2-1-0--2-3--4----------------|------------------------------------|
-------------------------------|------------------------------------|
-------------------------------|------------------------------------|


                                                                  
-------3-3-1-3-0-3-8-6-----|------6-6-4-6-3-6-11--9-9-11-9--13-9-|
----6----------------------|-----------------------------10------|
---------------------------|-------------------------------------|
---------------------------|-------------------------------------|
---------------------------|-------------------------------------|
---------------------------|-------------------------------------|


                                                                              
-------6-6-4-6-3-6-11-13----------------|--------10--------------------------|
----9---------------------------0-------|--10-12-----------------------------|
---------------------------0---------12-|------------------------------------|
----------------------------------12----|------------------------------------|
-----------------------------12---------|-----------10-10----10-10-8---------|
-----------------------------12---------|------------------------------------|


                                                          
----------------------------|----------------------------|
----------------------------|----------------------------|
----------------------------|----------------------------|
------------------8---------|----------------------------|
---10-10----10-10-----------|---10-10----10-10-8---------|
----------------------------|----------------------------|


                                                                 
----------------------------|---------------0---8--6-6-8-6-10-6-|
----------------------------|----8--8-8-6-8---8----------8------|
----------------------------|-----------------------------------|
------------------8---------|-----------------------------------|
---10-10----10-10-----------|-----------------------------------|
----------------------------|-----------------------------------|


                                                                  
-------3-3-1-3-0-3-8-6-----|------6-6-4-6-3-6-11--9-9-11-9--13-9-|
----6----------------------|-----------------------------10------|
---------------------------|-------------------------------------|
---------------------------|-------------------------------------|
---------------------------|-------------------------------------|
---------------------------|-------------------------------------|


                                                                              
-------6-6-4-6-3-6-11-13----------------|--------10--------------------------|
----9---------------------------0-------|--10-12-----------------------------|
---------------------------0---------12-|------------------------------------|
----------------------------------12----|------------------------------------|
-----------------------------12---------|-----------10-10----10-10-8---------|
-----------------------------12---------|------------------------------------|


                                                          
----------------------------|----------------------------|
----------------------------|----------------------------|
----------------------------|----------------------------|
------------------8---------|----------------------------|
---10-10----10-10-----------|---10-10----10-10-8---------|
----------------------------|----------------------------|


                                                                 
----------------------------|---------------0---8--6-6-8-6-10-6-|
----------------------------|----8--8-8-6-8---8----------8------|
----------------------------|-----------------------------------|
------------------8---------|-----------------------------------|
---10-10----10-10-----------|-----------------------------------|
----------------------------|-----------------------------------|


                                                                  
-------3-3-1-3-0-3-8-6-----|------6-6-4-6-3-6-11--9-9-11-9--13-9-|
----6----------------------|-----------------------------10------|
---------------------------|-------------------------------------|
---------------------------|-------------------------------------|
---------------------------|-------------------------------------|
---------------------------|-------------------------------------|


                                                                              
-------6-6-4-6-3-6-11-13----------------|--------10--------------------------|
----9---------------------------0-------|--10-12-----------------------------|
---------------------------0---------12-|------------------------------------|
----------------------------------12----|------------------------------------|
-----------------------------12---------|-----------10-10----10-10-8---------|
-----------------------------12---------|------------------------------------|


                                                          
----------------------------|----------------------------|
----------------------------|----------------------------|
----------------------------|----------------------------|
------------------8---------|----------------------------|
---10-10----10-10-----------|---10-10----10-10-8---------|
----------------------------|----------------------------|


                                                                 
----------------------------|---------------0---8--6-6-8-6-10-6-|
----------------------------|----8--8-8-6-8---8----------8------|
----------------------------|-----------------------------------|
------------------8---------|-----------------------------------|
---10-10----10-10-----------|-----------------------------------|
----------------------------|-----------------------------------|


                                                                  
-------3-3-1-3-0-3-8-6-----|------6-6-4-6-3-6-11--9-9-11-9--13-9-|
----6----------------------|-----------------------------10------|
---------------------------|-------------------------------------|
---------------------------|-------------------------------------|
---------------------------|-------------------------------------|
---------------------------|-------------------------------------|


                                                                              
-------6-6-4-6-3-6-11-13----------------|--------10--------------------------|
----9---------------------------0-------|--10-12-----------------------------|
---------------------------0---------12-|------------------------------------|
----------------------------------12----|------------------------------------|
-----------------------------12---------|-----------10-10----10-10-8---------|
-----------------------------12---------|------------------------------------|


                                                          
----------------------------|----------------------------|
----------------------------|----------------------------|
----------------------------|----------------------------|
------------------8---------|----------------------------|
---10-10----10-10-----------|---10-10----10-10-8---------|
----------------------------|----------------------------|


                                  
----------------------------|---||
----------------------------|---||
----------------------------|---||
------------------8---------|---||
---10-10----10-10-----------|---||
----------------------------|---||
            
Submit corrections

comments powered by Disqus
↑ Back to top | Megaman Tabs for Ice Mans. Lyrics for acoustic guitar and electric guitar. 1 Tablatures and chords are parodies/interpretations of the original songs. You may use it for private study, scholarship, research or language learning purposes only