>
 >
Guts Mans Theme

Guts Mans Theme Guitar Tabs

Megaman - Guts Mans Theme chords, tabs, tablatures, lyrics

Guitar lessons | Add/correct | Request | Top 50 tabs Artists:  A B C D E F G H I J K L M N O P Q R S T U V W X Y Z 0-9

Guts Mans Theme Guitar Tabs – Megaman

CD, Sheet music, Poster

Do you like Guts Mans Theme? Share with your friends now
Tabs
E||--------------------------------------------|
B||--------------------------------------------|
G||------------------------------------2-------|
D||-------------0------0------0------4-----0-3-|
A||---------3-3---3--3---3--3---3--3-----3-----|
E||--------------------------------------------|


                                                                                
-----------------------12--------7------|---------------------------7----------|
----1------------------11---------------|--------------------------------------|
--2---2--------------0----0-------------|-------------0-----2-2-2-2---2-2-0----|
--------4-0------0-0-----------------0--|---------0-0-------2-2-2-----2-2---0--|
------------3--3---------------8---8----|-------------------3-3-3-----3--------|
----------------------------------------|-------8------------------------------|


                                          
----------------------------------7------|
-----------------------------------------|
----------0-3-2-2-2-2-2-2-2-2---------3--|
--------0-----2-2-2-2-2-2-2-2-3-----3----|
--------------3-3-3-3-3-3-3--------------|
--------------3--------------------------|


                                                                        
------------7--------------------7-------|--------------------7--------|
-----------------------------------------|---------3-------------------|
----------0---2-2-2-2-2-2-2-2-0----0-----|-------5----0----------------|
--------0-----2-2-2-2-2-2-2-2---------4--|------------------3---3--0---|
--------------3-3-3-3-3-3-3--------------|-----------------------------|
--------------3--------------------------|-----------------------------|


                                                                           
------------------------2-------------|--------7---------------7----------|
--------------------------------------|-----------------------------------|
--------------0-----2-2-2-2-2-2-2-----|------------3----------------------|
----------0-0-------2-2---2-2-2-0-0---|----------0---3----2--1------------|
--------3-------------3-----3-3-------|----------5----------------6-4-----|
--------------------------------------|-------------------------------6---|


                                                                  
-----7--------------------------|------7------------7------------|
----------------------------3---|--------------------------------|
--------------------------------|---------------0-----0----------|
-----------0-0-3----2--1--0-----|-----------0-0----------3---0---|
--------------------------------|---------3----------------------|
---------8----------------------|--------------------------------|


                                         
------------------7-----------------7---|
----------------------------------------|
--------------0-----0-------------------|
----------0-0---------7-7-7-7-7-7-7-----|
--------3-------------7-7-7-7-7-7-5-----|
------------------------8-8-8-8-8-------|


                                         
--------------------------------------7-|
----------------------------------------|
------------3-2-2-2-2-2-2-2-2-2----3----|
----------5---2-2-2-2-2-2-2-2-----------|
--------5-------3-3-3-3-3-3-3-3---------|
----------------------------------------|


                                                                         
-----------------------7-------------7-----|-------------7--------------|
-------------------------------------------|----------3-----------------|
---3-------0-3-2-2-2-2---2-2-2-2-0-----0---|--------5------0------------|
---------0-----2-2-2-2---2-2-2-2---------4-|---------------------3---0--|
-----------------3-3-----3---3-------------|----------------------------|
-----------------------------3-------------|----------------------------|


                                                                        
------------2--------------------7----|-------7------------------------|
--------------------------------------|--------------------------------|
--------------0------2-2-2-2-2-2------|------------0-3-----------------|
----------0-0--------2-2-2-2-2-2---0--|----------0-----3----2--1-------|
--------3------------3-3-3-3-3-3------|---------------------------4-1--|
--------------------------------------|--------------------------------|


                                                                      
-------7----------------2---------|-----7------------7----------7----|
-------------------------------3--|----------------------------------|
----------------------------------|----------------0---0-------------|
------------0-0-3----2--1-1--0----|------------0-0----------3-----0--|
----------3-----------------------|----------3-----------------------|
----------------------------------|----------------------------------|


                                      
--------------------------------7----|
-------------------------------------|
--------------0-----2-2-2-2-2-2------|
----------0-0-------2-2-2-2-2-2---0--|
--------3-----------3-3-3-3-3-3------|
-------------------------------------|


                                            
--------------2------------------------7---|
-------------------------------------------|
----------0-3-2-2-2-2-2-2-2-2-2------3-----|
--------0---------2-2-2-2-2-2---3----------|
------------------3---3---3----------------|
------------------3---3---3----------------|


                                                                      
---------7----------------------2----------|-----7------------------||
-------------------------------------------|------------------------||
---3--------0-3-2-2-2-2-2-2-2-2-0-0--------|--------5-7-------------||
----------------2-2-2-2-2-2-2-2--------4---|-------------5----------||
----------------3---3---3---3--------------|------------------------||
----------------3---3---3---3--------------|------------------------||





Comments


Popular Megaman tabs & chords
Bomb Mans Theme Tabs
Cut Mans Theme Tabs
Elec Mans Theme Tabs
Firemans Theme Tabs
Ice Mans Theme Tabs
Password Theme Tabs
Robot Select Theme Tabs


Song lyrics



↑ Back to top | Tablatures and chords are parodies/interpretations of the original songs. You may use it for private study, scholarship, research or language learning purposes only
© 2014 AZChords.com Contact us | Privacy policy | DMCA | Add/correct tabs | Request tabs | Top 50 tabs