>
 >
Cut Mans Theme

Cut Mans Theme Guitar Tabs

Megaman - Cut Mans Theme chords, tabs, tablatures, lyrics

Guitar lessons | Add/correct | Request | Top 50 tabs Artists:  A B C D E F G H I J K L M N O P Q R S T U V W X Y Z 0-9

Cut Mans Theme Guitar Tabs – Megaman

CD, Sheet music, Poster

Do you like Cut Mans Theme? Share with your friends now
Tabs

                                                                
E||--0--0-0-0--0-0--0-0-0-0--0-0-|--0--0-0-0--0-0--0-0-0-2--4--|
B||------------------------------|-----------------------------|
G||------------------------------|-----------------------------|
D||------------------------------|-----------------------------|
A||------------------------------|-----------------------------|
E||------------------------------|-----------------------------|


                                                       
--17-29------------------------|----------------------|
-----22-------0----------------|----------------------|
-------------------------------|----------------------|
-------------------------------|----------------------|
--------------------17--15--14-|---15-----------------|
----------------20-------------|------12--------------|


                                                                         
--------------------------|-----0--------------|--1--------1-3--1--0----|
--------------------------|---3----------------|----------------------3-|
------------------7--5--4-|--------------------|------------------------|
------------9-10----------|--------------------|------------------------|
--12----------------------|--------------------|------------------------|
--------------------------|--------------------|------------------------|


                                                                     
--0--------0-1--0-------|-----------------------|--0----------------|
-------------------3--1-|--4------0----0--2--4--|-------------------|
------------------------|-----------------------|-------------------|
------------------------|-----------------------|-------------------|
------------------------|-----------------------|-------------------|
------------------------|-----------------------|-------------------|


                                                                       
------------------------|--------------------|------------------------|
-----------0-1--3--1--0-|---1----------------|-----------0-1--3--1--0-|
--2---------------------|--------------------|--2---------------------|
------------------------|-----2--------------|------------------------|
------------------------|--------------------|------------------------|
------------------------|--------------------|------------------------|


                                                                       
-----0--------------|--1--------1-3--1--0----|--0--------0-1--0-------|
---3----------------|----------------------3-|-------------------3--1-|
--------------------|------------------------|------------------------|
--------------------|------------------------|------------------------|
--------------------|------------------------|------------------------|
--------------------|------------------------|------------------------|


                                                                  
-----------------------|-------------------|--5----------7----5--|
--0--------------------|-------------------|---------------------|
---------2----1-----1--|--2----------------|---------------------|
-----------------4-----|-------------------|---------------------|
-----------------------|-------------------|---------------------|
-----------------------|-------------------|---------------------|


                                                                 
--3----------------|--1----------3----1--|--0--1--2--3----------|
-------------------|---------------------|----------------------|
-------------------|---------------------|----------------------|
-------------------|---------------------|----------------------|
-------------------|---------------------|----------------------|
-------------------|---------------------|----------------------|


                                                                                
--5----------7----5--|--3--3--10--8----------|---------------------------7--5--|
---------------------|-----------------------|--10-10--10-10--10--10-----------|
---------------------|-----------------------|---------------------------------|
---------------------|-----------------------|---------------------------------|
---------------------|-----------------------|---------------------------------|
---------------------|-----------------------|---------------------------------|


                                                                            
--5--------4--------|--17-29------------------------|----------------------|
--------------------|-----22-------0----------------|----------------------|
--------------------|-------------------------------|----------------------|
--------------------|-------------------------------|----------------------|
--------------------|--------------------17--15--14-|---15-----------------|
--------------------|----------------20-------------|------12--------------|


                                                                         
--------------------------|-----0--------------|--1--------1-3--1--0----|
--------------------------|---3----------------|----------------------3-|
------------------7--5--4-|--------------------|------------------------|
------------9-10----------|--------------------|------------------------|
--12----------------------|--------------------|------------------------|
--------------------------|--------------------|------------------------|


                                                                     
--0--------0-1--0-------|-----------------------|--0----------------|
-------------------3--1-|--4------0----0--2--4--|-------------------|
------------------------|-----------------------|-------------------|
------------------------|-----------------------|-------------------|
------------------------|-----------------------|-------------------|
------------------------|-----------------------|-------------------|


                                                                       
------------------------|--------------------|------------------------|
-----------0-1--3--1--0-|---1----------------|-----------0-1--3--1--0-|
--2---------------------|--------------------|--2---------------------|
------------------------|-----2--------------|------------------------|
------------------------|--------------------|------------------------|
------------------------|--------------------|------------------------|


                                                                       
-----0--------------|--1--------1-3--1--0----|--0--------0-1--0-------|
---3----------------|----------------------3-|-------------------3--1-|
--------------------|------------------------|------------------------|
--------------------|------------------------|------------------------|
--------------------|------------------------|------------------------|
--------------------|------------------------|------------------------|


                                                                  
-----------------------|-------------------|--5----------7----5--|
--0--------------------|-------------------|---------------------|
---------2----1-----1--|--2----------------|---------------------|
-----------------4-----|-------------------|---------------------|
-----------------------|-------------------|---------------------|
-----------------------|-------------------|---------------------|


                                                                 
--3----------------|--1----------3----1--|--0--1--2--3----------|
-------------------|---------------------|----------------------|
-------------------|---------------------|----------------------|
-------------------|---------------------|----------------------|
-------------------|---------------------|----------------------|
-------------------|---------------------|----------------------|


                                                                                
--5----------7----5--|--3--3--10--8----------|---------------------------7--5--|
---------------------|-----------------------|--10-10--10-10--10--10-----------|
---------------------|-----------------------|---------------------------------|
---------------------|-----------------------|---------------------------------|
---------------------|-----------------------|---------------------------------|
---------------------|-----------------------|---------------------------------|


                      
--5--------4--------||
--------------------||
--------------------||
--------------------||
--------------------||
--------------------||





Comments


Popular Megaman tabs & chords
Bomb Mans Theme Tabs
Elec Mans Theme Tabs
Firemans Theme Tabs
Guts Mans Theme Tabs
Ice Mans Theme Tabs
Password Theme Tabs
Robot Select Theme Tabs


Song lyrics



↑ Back to top | Tablatures and chords are parodies/interpretations of the original songs. You may use it for private study, scholarship, research or language learning purposes only
© 2014 AZChords.com Contact us | Privacy policy | DMCA | Add/correct tabs | Request tabs | Top 50 tabs