» » »

Megadeth, Coming Home Tabs (ver.1)

Artists:  A B C D E F G H I J K L M N O P Q R S T U V W X Y Z # 

Coming Home Tabs (ver.1)

Megadeth Tabs
 Rating:
4/5 (4 votes)
Coming Home lessons Tabs too difficult? Try these video lessons and learn fast
                



E--------7-------7-------7-------7-------7-------7-------7-------7---
B--8-8-8---8-8-8---7-8-8---7-8-8-----8-8-----8-8---7-8-8---7-8-8-----
G----------------------------------9-------9-------------------------
D--------------------------------------------------------------------
A--------------------------------------------------------------------
E--------------------------------------------------------------------


E--------7-------7-------7-------7-------7-------7-------7-------7---
B--8-8-8---8-8-8---7-8-8---7-8-8-----8-8-----8-8-----8-8-----8-8-----
G----------------------------------9-------9-------8-------8---------
D--------------------------------------------------------------------
A--------------------------------------------------------------------
E--------------------------------------------------------------------


E---------7---------------7----------
B----8-10---10-8-----8-10---10-8-----
G--8-------------8-8-------------8---
D------------------------------------
A------------------------------------
E------------------------------------


E--------3---------2---------1---------0-----
B----------0---------0---------0---------0---
G------2---------2---------2---------2-------
D----2---------2---------2---------2---------
A--0---------0---------0---------0-----------
E--------------------------------------------
            
Submit corrections

comments powered by Disqus
↑ Back to top | Megadeth Tabs for Coming Home. Lyrics for acoustic guitar and electric guitar. Tablatures and chords are parodies/interpretations of the original songs. You may use it for private study, scholarship, research or language learning purposes only