» » »

Me First And The Gimme Gimmes, Who Put The Bomb Bass tabs (ver.1)

Artists:  A B C D E F G H I J K L M N O P Q R S T U V W X Y Z # 

Who Put The Bomb Bass tabs (ver.1)

Me First And The Gimme Gimmes Tabs
 Rating:
4/5 (4 votes)
Who Put The Bomb lessons Tabs too difficult? Try these video lessons and learn fast
                CHORUS X2 at 00:19 *=play 8X  VERSE *=play 8X
G----------------+            G----------------+
D---------5*--7*-+            D-----4*--5*--6*-+
A-5*-------------+            A-5*-------------+
E-----7*---------+            E----------------+

VERSE2 %=play 6X
G------------------------------+ Then play CHORUS.
D-----------5-5--77777---------+
A-5-5-------------------5%-----+
E------7-7------------------5%-+

VERSE3 *=play 8X
G----------------+ Then play VERSE2, CHORUS and VERSE.
D---------5*--6*-+
A-5*-------------+
E-----7*---------+

VERSE4 %=play 6X
G------------------------------+
D-----------5-5--77777---------+
A-5-5-------------------5%-----+
E------7-7------------------6%-+

CHORUS2 X2 at 00:19 *=play 8X  VERSE5 *=play 8X
G----------------+             G----------------+
D---------6*--8*-+             D---------6*--7*-+ 
A-6*-------------+             A-6*-------------+
E-----8*---------+             E-----8*---------+

VERSE6 %=play 6X
G------------------------------+ Then play CHORUS2.
D-----------6-6--88888---------+
A-6-6-------------------6%-----+
E------8-8------------------6%-+

VERSE7 *=play 8X
G----------------+ Then play VERSE6 X2.
D-----5*--6*--7*-+
A-6*-------------+
E----------------+

OUTRO *=play several times
G----------------------------+
D----------------------------+
A-6-------------------6*/18*-+
E------8----4----6-----------+
            
Submit corrections

comments powered by Disqus
↑ Back to top | Me First And The Gimme Gimmes Bass for Who Put The Bomb. Lyrics for acoustic guitar and electric guitar. Tablatures and chords are parodies/interpretations of the original songs. You may use it for private study, scholarship, research or language learning purposes only