» » »

Me First And The Gimme Gimmes, Science Fiction Double Feature Tabs (ver.1)

Artists:  A B C D E F G H I J K L M N O P Q R S T U V W X Y Z # 

Science Fiction Double Feature Tabs (ver.1)

Me First And The Gimme Gimmes Tabs
 Rating:
4/5 (4 votes)
Science Fiction Double Feature lessons Tabs too difficult? Try these video lessons and learn fast
1
                Standard Tuning - EADGBE
(Listen to CD to get timing right)

Intro 

|------------------------------------|
|------------------------------------|
|------------------------------------| 
|-10----8-----6-----8------5---------|   Hold Last Chord
|-10----8-----6-----8------5---------| 
|-8-----6-----4-----6------3---------| 

Verse 1  (part 2)
 Part one is played by the bass.

|---------------------------------------------------------------| 
|---------------------------------------------------------------| 
|---------------------------------------------------------------| 
|----10-10-10-10----8--8--8--8-----6--6--6--6-----5--5--5--5----| x 2 
|----10-10-10-10----8--8--8--8-----6--6--6--6-----5--5--5--5----|  
|----8---8--8---8---6--6--6--6-----4--4--4--4-----3--3--3--3----| 

Chorus

|---------------------| 
|---------------------| 
|---------------------| 
|---3---5---10---7----|   x 4 
|---3---5---10---7----| 
|---1---3---8----5----| 

Post Chorus
|---------------------------------------| 
|---------------------------------------| 
|---------------------------------------| 
|---3-3-3-3---5-5-5-5---10---8---6---5--|   
|---3-3-3-3---5-5-5-5---10---8---6---5--| 
|---1-1-1-1---3-3-3-3---8----6---4---3--|
Verse 2  
 
|---------------------------------------------------------------| 
|---------------------------------------------------------------| 
|---------------------------------------------------------------| 
|----10-10-10-10----8--8--8--8-----6--6--6--6-----5--5--5--5----| x 4 
|----10-10-10-10----8--8--8--8-----6--6--6--6-----5--5--5--5----|  
|----8--8--8---8----6--6--6--6-----4--4--4--4-----3--3--3--3----|

Chorus
|---------------------| 
|---------------------| 
|---------------------| 
|---3---5---10---7----|   x 4 
|---3---5---10---7----| 
|---1---3---8----5----| 

Post Chorus
|---------------------------------------------| 
|---------------------------------------------| 
|---------------------------------------------| 
|---3-3-3-3---5-5-5-5---10-10---7--7---3-3----|   x 2
|---3-3-3-3---5-5-5-5---10-10---7--7---3-3----| 
|---1-1-1-1---3-3-3-3---8---8---5—-5---1-1----|

|-----------------------------------------| 
|-----------------------------------------| 
|-----------------------------------------| 
|---3-3-3-3---5-5-5-5---10-10-------------|   
|---3-3-3-3---5-5-5-5---10-10-------------| 
|---1-1-1-1---3-3-3-3---8---8-------------|

Outro (slow  bit)

|----------------------------------| 
|----------------------------------| 
|----------------------------------| 
|-7--3-3-3-3---5-5-5-5---10-10-----|   
|-7--3-3-3-3---5-5-5-5---10-10-----| 
|-5--1-1-1-1---3-3-3-3---8---8-----|
            
Submit corrections

comments powered by Disqus
↑ Back to top | Me First And The Gimme Gimmes Tabs for Science Fiction Double Feature. Lyrics for acoustic guitar and electric guitar. 1 Tablatures and chords are parodies/interpretations of the original songs. You may use it for private study, scholarship, research or language learning purposes only