» » »

San Francisco Tabs (ver.1)

Artists:  A B C D E F G H I J K L M N O P Q R S T U V W X Y Z # 

San Francisco Tabs (ver.1)

Me First And The Gimme Gimmes
Rating:
0/5 (0 votes)

Hard to play? Try these video lessons and learn fast.
                Intro

e|------------------------------|
B|------------------------------|
G|------------------------------|
D|--77777777--776644------------|
A|--77777777--------7755445577--|
E|--55555555--------------------|

Main Riff

e|------------------------------------|
B|------------------------------------|
G|----------77777777------------------|  x2
D|--44444444777777777777777722222222--|
A|--44444444555555557777777722222222--|
E|--22222222--------5555555500000000--|

e|------------------------------------|
B|------------------------------------|
G|------------------77777777----------|
D|--44444444777777777777777777777777--|
A|--44444444777777775555555577777777--|
E|--2222222255555555--------55555555--|

e|------------------------------------|
B|------------------------------------|
G|----------66666666------------------|
D|--77777777666666664444444422222222--|
A|--77777777444444444444444422222222--|
E|--55555555--------2222222200000000--|

Bridge

e|----------------------------|
B|----------------------------|
G|----------------------------|
D|--222222222222/7~--7---7-7--|
A|--222222222222/7~---7---7---|
E|--333333333333/5~----5~-----|

e|-----------------------------------|
A|-----------------------------------|
G|--------------------7-----9-----7--|
D|--222222222222--4-7-7-4-7-9-4-7-7--|
A|--222222222222--4-7-5-4-7-7-4-7-5--|
E|--333333333333--2-5---2-5---2-5----|

End

e|----------------------|
B|----------------------|
G|----------------------|
D|--776644-----------7--|
A|--------7755445577-7--|
E|-------------------5--|
            
Hard to play? Try these video lessons and learn fast. | Correct




comments powered by Disqus
↑ Back to top | Tablatures and chords are parodies/interpretations of the original songs. You may use it for private study, scholarship, research or language learning purposes only