» » »

Me First And The Gimme Gimmes, Nothing Compares 2 U Bass tabs (ver.1)

Artists:  A B C D E F G H I J K L M N O P Q R S T U V W X Y Z # 

Nothing Compares 2 U Bass tabs (ver.1)

Me First And The Gimme Gimmes Tabs
 Rating:
4/5 (4 votes)
Nothing Compares 2 U lessons Tabs too difficult? Try these video lessons and learn fast
1
                
Verse 1
G:------------------------------------------------------------------|
D:------------------------------------------------------------------|
A:-----------------------------------------------------------5-32---|x1
E:---------------------------------------------------------------3--|

G:------------------------------------------------------------------|
D:------------------------------------------------------------------|
A:-3~~~------------------------------------------------------5-32---|x1
E:---------------------------------------------------------------3--|

G:------------------------------------------------------------------|
D:------------------------------------------------------------------|
A:-3~~~----------------------5-32----------------------------5-32---|x1
E:-------------------------------3-5~~~--------------------------3--|

G:---------------------------------------------------------------------------|
D:---------------------------------------------------------------------------|
A:-33~~------5-32------------5-32--------------------------------------------|x1
E:---------------3~~~------------3-5~~~-------------------1/1212121212121212-|

Chorus 1 
G:--------------------------------------------------|
D:--------------------------------------------------|
A:-88888888--------88888888-------------------------|x1
E:---------88888888--------888888883333333333333333-|

Verse 2
G:------------------------------------------------------------------|
D:------------------------------------------------------------------|
A:---------------------------5-32----------------------------5-32---|x1
E:-------------------------------3-5~~~--------------------------3--|

G:------------------------------------------------------------------|
D:------------------------------------------------------------------|
A:-3-3~------5-32------------5-32--------------------------5-5-532--|x1
E:---------------3~~~------------3-5-5~-----------------------------|

G:------------------------------------------------------------------|
D:------------------------------------------------------------------|
A:-333~------5-32------------5-32------------5-32----------5-5-532--|x1
E:---------------3~~~------------3-5~~~----------3~-----------------|

G:---------------------------------------------------------------------------|
D:---------------------------------------------------------------------------|
A:----3333333333333----------------------------------------------------------|x1
E:-----------------3333333333333333555555555555555500000000/1212121212121212-|

Chorus 2
G:-----------------------------------------------------------------------------|
D:-----------------------------------------------------------------------------|
A:-88888888--------------------------------------------------------------------|x1
E:---------88888888555555553333333333333333/14141414141414143/1616161616161616-|

Bridge
G:------------------------------------------------------------------|
D:------------------------------------------------------------------|
A:-3333333333333333-------------------------------------------------|x1
E:-----------------333333333333333355555555555555551111111133333333-|

G:---------------------------------------------------------------------------|
D:---------------------------------------------------------------------------|
A:-3333333333333333----------------------------------------------------------|x1
E:-----------------3333333333333333555533332222111100000000/1212121212121212-|

Chorus 3
G:-----------------------------------------|
D:-----------------------------------------|
A:-88888888--------------------------------|x2
E:---------8888888855555553333333333333333-|

G:------------------------------------------------------------------|
D:------------------------------------------------------------------|
A:-88888888---------------------------------------------------------|x1
E:---------888888885~~~~~~~-------3~~~~~~~--------------------------|
            
Submit corrections

comments powered by Disqus
↑ Back to top | Me First And The Gimme Gimmes Bass for Nothing Compares 2 U. Lyrics for acoustic guitar and electric guitar. 1 Tablatures and chords are parodies/interpretations of the original songs. You may use it for private study, scholarship, research or language learning purposes only