» » »

Me First And The Gimme Gimmes, Nothin Compares To You Tabs (ver.1)

Artists:  A B C D E F G H I J K L M N O P Q R S T U V W X Y Z # 

Nothin Compares To You Tabs (ver.1)

Me First And The Gimme Gimmes Tabs
 Rating:
4/5 (4 votes)
Nothin Compares To You lessons Tabs too difficult? Try these video lessons and learn fast
                Hey, I aint seen this song around so I thought I would tab it for u. Its well easy by the way.

Verse:

You have to mute the strings after you hit the note each time.

e|-----------------3--3--3--3---5--5--5--5---------- 3---3---
B|-5--5--5--5---3--3--3--3---5--5--5--5---5--5---3--3----
G|-5--5--5--5---4--4--4--4---5--5--5--5---5--5---4--4---
D|-5--5--5--5---5--5--5--5---7--7--7--7---5--5---5--5---  (x4)
A|-3--3--3--3---5--5--5--5---7--7--7--7---3--3---5--5--
E|----------------3--3--3--3---5--5--5--5-----------3--3--

Then before the chorus play this

e|-0-0-0-0-0-0-0-0----
B|-0-0-0-0-0-0-0-0----
G|-1-1-1-1-1-1-1-1--- 
D|-2-2-2-2-2-2-2-2---
A|-2-2-2-2-2-2-2-2---
E|-0-0-0-0-0-0-0-0-----

Chorus

e|------------------------------------------------------------------
B|-----------------------------------------------------------------
G|-----------5-5-5-5-----------5-5-5-5----------------------------
D|-3-3-3-3-5-5-5-5-3-3-3-3-5-5-5-5-5-5-5-5-5-5-5-5-5-5---
A|-3-3-3-3-3-3-3-3-3-3-3-3-3-3-3-3-5-5-5-5-5-5-5-5-5-5----
E|-1-1-1-1-----------1-1-1-1-----------3-3-3-3-3-3-3-3-3-3----

Then play verse x4 but only with powerchords 

Chorus 2

e|------------------------------------------------------------------
B|-----------------------------------------------------------------
G|-----------5-5-5-5------------------------------------------
D|-3-3-3-3-5-5-5-5-7-7-7-7-5-5-5-5-5-5-5-5-5-5-5-5--
A|-3-3-3-3-3-3-3-3-7-7-7-7-5-5-5-5-5-5-5-5-5-5-5-5---
E|-1-1-1-1-----------5-5-5-5-3-3-3-3-3-3-3-3-3-3-3-3--


Then verse with powerchords, then play chorus 2 x3 stop on A chord for the feedback
Guitar 2 plays this

e|----------------------------------------------
B|-----------------------------------------------
G|-5-5-5-/-7-7-/-9-9-9--9-9-9-/-7-7-7----
D|-x-x-x---x-x---x-x-x--x-x-x---x-x-x---
A|-3-3-3-/-5-5-/-7-7-7--7-7-7-/-5-5-5---
E|----------------------------------------------


That the end my friend

Gaz
            
Submit corrections

comments powered by Disqus
↑ Back to top | Me First And The Gimme Gimmes Tabs for Nothin Compares To You. Lyrics for acoustic guitar and electric guitar. Tablatures and chords are parodies/interpretations of the original songs. You may use it for private study, scholarship, research or language learning purposes only