» » »

Natural Woman Tabs (ver.1)

Artists:  A B C D E F G H I J K L M N O P Q R S T U V W X Y Z # 

Natural Woman Tabs (ver.1)

Me First And The Gimme Gimmes
Rating:
0/5 (0 votes)

Hard to play? Try these video lessons and learn fast.
                Me First and the Gimme Gimmes

I was shocked to find this song hasnt been tabbed anywhere else so here it is: (I'm 
sure this is near 100% correct)

Intro
e|--------------------------------------------|
B|--------------------------------------------|
G|---9-9999-----------------------------------|
D|---9-9999--9-9999--11--11-11-11-11--9-9999--| X4
A|---7-7777--9-9999--11--11-11-11-11--9-9999--|
E|-----------7-7777---9---9--9--9--9--7-7777--|

e|--------------------------------------------------------|
B|--------------------------------------------------------|
G|--------------------------------------------------------|
D|--------------------------------------------------------|
A|----------------2-2--4-2~--6p4-2-------5~-7~--8-8-9-8~--|
E|--7/--0~--2~-4~-------------------4-2~------------------|


Verse (“Looking out on the.....“)
e|--------------------| |-----------------------------------|
B|--------------------| |-----------------------------------|
G|--------------------| |--99-9--99-9--99-9--99-9--9999999--|
D|------------7~--3~--| |--99-9--99-9--99-9--99-9--9999999--| X2
A|------------5---1~--| |--77-7--77-7--77-7--77-7--7777777--|
E|----7/-0~-----------| |-----------------------------------|
pm.                        ..    ..    ..    ..    .......


Pre-Chorus (“For the day I met you.....”)
e|-----------------------------------------------------|
B|-----------------------------------------------------|
G|-----------------------------------------------------|
D|---------------------------7-7-7-7-7-7--9-9-9-9-9-9--|
A|--4~--6~--4~--7~--4~--6~---5-5-5-5-5-5--7-7-7-7-7-7--|
E|--2~--4~--2~--5~--2~--4~-----------------------------|


Chorus (“You make me feel.....”)
e|-------------------|     |------|
B|-------------------|     |------|
G|--99999999---------|     |--9/--|
D|--99999999--7-7-7--| X2  |--9/--|
A|--77777777--7-7-7--|     |--7/--|
E|------------5-5-5--|     |------|


Post-Chorus
e|------------------|
B|------------------|
G|--999999----------|
D|--999999--999999--|
A|--777777--999999--|
E|----------777777--|


Verse (“And when my soul was.....”)
e|--------------------------------------------------------------------------|
B|--------------------------------------------------------------------------|
G|-------11~--11~---------------------------999999--99-9~--999999-----------|
D|--9~----x----x----------------------2~----999999--99-9~--999999-----------|
A|--7~----9~---9~---9/-7--------------------777777--77-7~--777777-->>>>>>>--|
E|------------------------4~--2~--0~------------------------------->>>>>>>--|
Pm.                                         ......  ..     ......


Pre-chorus (“I’m no longer doubtful..... “)


Chorus (“You make me feel.....”)


Post-chorus


Bridge (“Oh baby, what you done.....”)
E|--------------------------------------------------12-12-12-12--|
B|--------------------------------------------------12-12-12-12--|
G|-------10~--------10~--------10~-------------------------------|
D|--------9~---10~---9~---10~---9~---9999999--7777---------------|
A|--10~---7~---10~---7~---10~---7~---9999999--7777---------------|
E|---8~---------8~---------8~--------7777777--5555---------------|
Pm.                                  .......  ....


Chorus (“You make me feel.....”)


Pickslide


Post-chorus


Outro
e|-------------------------------------------|
B|-------------------------------------------|
G|--9-9999-----------------------------------|
D|--9-9999--9-9999--11--11-11-11-11--9-9999--| X2
A|--7-9999--9-9999--11--11-11-11-11--9-9999--|
E|----------7-7777---9---9--9--9--9--7-7777--|

e|--------------------------------------------------------|
B|--------------------------------------------------------|
G|--------------------------------------------------------|
D|--------------------------------------------------------|
A|----------------2-2--4-2~--6p4-2-------5~-7~--8-8-9-8~--|
E|--7/--0~--2~-4~-------------------4-2~------------------|

e|----------------------------------------------------------------15/--|
B|----------------------------------9\15-16-15~-h16p15~--16p15/---14/--|
G|---------------8~--5v~------------------------------------------13/--|
D|-----7h9~-10~--------------------------------------------------------|
A|--7------------------------------------------------------------------|
E|---------------------------------------------------------------------|

Key

Pm... = palm mute
    x = mute string
    0 = open string
    h = hammer on
    p = pull off
    ~ = let ring
    / = slide down
    \ = slide up
    ^ = bend
    >>> = pickslide
            
Hard to play? Try these video lessons and learn fast. | Correct




comments powered by Disqus
↑ Back to top | Tablatures and chords are parodies/interpretations of the original songs. You may use it for private study, scholarship, research or language learning purposes only