» » »

Me First And The Gimme Gimmes, Looking For Love Tabs (ver.1)

Artists:  A B C D E F G H I J K L M N O P Q R S T U V W X Y Z # 

Looking For Love Tabs (ver.1)

Me First And The Gimme Gimmes Tabs
 Rating:
4/5 (4 votes)
Looking For Love lessons Tabs too difficult? Try these video lessons and learn fast
                Band: Me First and the Gimme Gimmes
Label: Fat Wreck Chords

Hope you guys enjoy this one, probably my favourite cover band, please rate and comment :)

Intro:

e|--------------------------------------|
B|--------------------------------------|
G|-99-999-999-999-9-9xx-9xx-9xx-9xx-7-6-|
D|-99-999-999-999-9-9xx-9xx-9xx-9xx-7-6-|
A|-77-777-777-777-7-7xx-7xx-7xx-7xx-5-4-|
E|--------------------------------------|


Verse:

e|---------------------------------------------------------------------|
B|---------------------------------------------------------------------|
G|-77-777-777-777-7------------------77-777-7----------99-999-999-99-8-|
D|-77-777-777-777-7-77-777-777-777-7-77-777-7-77-777-7-99-999-999-99-8-|
A|-55-555-555-555-5-77-777-777-777-7-55-555-5-77-777-7-77-777-777-77-6-|
E|------------------55-555-555-555-5----------55-555-5-----------------|

e|-----------------------------------------------------|
B|-----------------------------------------------------|
G|-77-777-777-777-7------------------77-777-7----------|
D|-77-777-777-777-7-77-777-777-777-7-77-777-7-77-777-7-|
A|-55-555-555-555-5-77-777-777-777-7-55-555-5-77-777-7-|
E|------------------55-555-555-555-5----------55-555-5-|

e|-------------------|
B|-------------------|
G|-99-9-77-7-66-6----|
D|-99-9-77-7-66-6-99-|
A|-77-7-55-5-44-4-99-|
E|----------------77-|


Chorus:

e|---------------------------------------------------------------|
B|---------------------------------------------------------------|
G|------------------6666666666666666-7777777777777777---x6-x7-x9-|
D|-7777777777777777-6666666666666666-7777777777777777-7-x6-x7-x9-|
A|-7777777777777777-4444444444444444-5555555555555555-7-x4-x5-x7-|
E|-5555555555555555-----------------------------------5----------|

e|------------------------------------------------------|
B|------------------------------------------------------|
G|------------------6666666666666666-77777777------99-9-|
D|-7777777777777777-6666666666666666-77777777-77-7-99-9-|
A|-7777777777777777-4444444444444444-55555555-77-7-77-7-|
E|-5555555555555555---------------------------55-5------|

e|--------------------------|
B|--------------------------|
G|----------------------7---|
D|-7-xx7-xx7-xx7-xx7-xx-7-7-|
A|-7-xx7-xx7-xx7-xx7-xx-5-7-|
E|-5-xx5-xx5-xx5-xx5-xx---5-|


Verse:

e|---------------------------------------------------------------------|
B|---------------------------------------------------------------------|
G|-77-777-777-777-7------------------77-777-7----------99-999-999-99-8-|
D|-77-777-777-777-7-77-777-777-777-7-77-777-7-77-777-7-99-999-999-99-8-|
A|-55-555-555-555-5-77-777-777-777-7-55-555-5-77-777-7-77-777-777-77-6-|
E|------------------55-555-555-555-5----------55-555-5-----------------|

e|-----------------------------------------------------|
B|-----------------------------------------------------|
G|-77-777-777-777-7------------------77-777-7----------|
D|-77-777-777-777-7-77-777-777-777-7-77-777-7-77-777-7-|
A|-55-555-555-555-5-77-777-777-777-7-55-555-5-77-777-7-|
E|------------------55-555-555-555-5----------55-555-5-|

e|-------------------|
B|-------------------|
G|-99-9-77-7-66-6----|
D|-99-9-77-7-66-6-99-|
A|-77-7-55-5-44-4-99-|
E|----------------77-|


Chorus:

e|---------------------------------------------------------------|
B|---------------------------------------------------------------|
G|------------------6666666666666666-7777777777777777---x6-x7-x9-|
D|-7777777777777777-6666666666666666-7777777777777777-7-x6-x7-x9-|
A|-7777777777777777-4444444444444444-5555555555555555-7-x4-x5-x7-|
E|-5555555555555555-----------------------------------5----------|

e|------------------------------------------------------|
B|------------------------------------------------------|
G|------------------6666666666666666-77777777------99-9-|
D|-7777777777777777-6666666666666666-77777777-77-7-99-9-|
A|-7777777777777777-4444444444444444-55555555-77-7-77-7-|
E|-5555555555555555---------------------------55-5------|


Outro:

e|-----------------------------------------------------------|
B|-----------------------------------------------------------|
G|-1414-141414-141414-141414-14-1313-131313-131313-131313-13-|
D|-x-x--x-x-x--x-x-x--x-x-x--x--x-x--x-x-x--x-x-x--x-x-x--x--|
A|-1212-121212-121212-121212-12-1111-111111-111111-111111-11-|
E|-----------------------------------------------------------|

e|-----------------------------------------------------------|
B|---------------------------5~~~-5b-3h5-2--/22\-------------|
G|-77-777-7------99-9----------------------------------------|
D|-77-777-7-77-7-99-9-7----7---------------------7-5-2-0-----|
A|-55-555-5-77-7-77-7-7----7---------------------------------|
E|----------55-5------5----5-----------------------------3b--|
                                                (^ played on different guitar)


************************************

| /   slide up
| \   slide down
| x   mute
| h   hammer-on
| p   pull-off
| ~   vibrato
| +   harmonic
| x   Mute note
| b   Bend
| pb  Pre-bend
| br  Bend release
| pbr Pre-bend release
| brb Bend release bend

************************************
            
Submit corrections

comments powered by Disqus
↑ Back to top | Me First And The Gimme Gimmes Tabs for Looking For Love. Lyrics for acoustic guitar and electric guitar. Tablatures and chords are parodies/interpretations of the original songs. You may use it for private study, scholarship, research or language learning purposes only