» » »

Me First And The Gimme Gimmes, It's Raining On Prom Night Bass tabs (ver.1)

Artists:  A B C D E F G H I J K L M N O P Q R S T U V W X Y Z # 

It's Raining On Prom Night Bass tabs (ver.1)

Me First And The Gimme Gimmes Tabs
 Rating:
4/5 (4 votes)
It's Raining On Prom Night lessons Tabs too difficult? Try these video lessons and learn fast
                INTRO at 00:41 /=slide up
G--------+
D--------+
A-3-/-15-+
E--------+

VERSE *=play 13X /=slide up (x)=single note
G-------------------------------------------------------------------------------------+
D--------7777777-77-55----------------------------------------------------------------+
A-3*-------------------88-77-8*-----55-7-8--------------------------------------------+
E------------------------------------------3333333-/-(15)(15)(15)(15)(15)(15)(15)(15)-+

VERSE2 *=play 13X /=slide up (x)=single note
G------------------------------------------------------------------------------------+
D----------------555-----------------------------------------------------------------+
A-3*-----0000000-----888-77-8*-----55-7-8--------------------------------------------+
E-----------------------------------------3333333-/-(15)(15)(15)(15)(15)(15)(15)(15)-+

VERSE3 *=play 13X (x)=single note
G---------------------------------------------------------------------------------+
D--------7777777-(10)(10)(10)-999-7---------(10)(10)(10)-999-7---------5555-33-22-+
A-3*--------------------------------8888888---------------------------------------+
E--------------------------------------------------------------3333333------------+

VERSE4 *=play 13X /=slide up
G-----------------------------------------------+
D----------------/-77777777---------------------+
A-3*-----0000000------------888888-777-55-77----+
E--------------------------------------------3*-+

BRIDGE 
G--------------------------------------+
D--------------------------------------+
A-3--------------3---------0----5------+
E------1----0---------1--------------3-+

BRIDGE-PART
G-------------------------------------------4-5-------+
D---2-3-5-3-2--7-5-3-2-3-2--3-2-0--3-2-0--5-----5-3-2-+
A-3---------------------------------------------------+
E-----------------------------------------------------+

BRIDGE-PART2 (x)=single note
G---------------------------------------------4-5-7-5-4--------+
D---2---5-3-2-(10)-9-7-5-3-2--3-2-0--3-2-0--5------------------+
A-3---3-------------------------------------------------3------+
E------------------------------------------------------------4-+

BRIDGE-PART3
G-------------------------------------------------------8-6-5------------+
D---3-4-3-6-4-3-6-------------------------------------6------------------+
A-4------------------8-6-4-8-6-4-8--9-8-6-4--9-8-6-4---------------------+
E------------------6------------------------------------------4-4-4-44-4-+

CHORUS
G------------------------------------------------------------------------------------+
D------3333-4444-6666----------------------------------------------------------------+
A-4444----------------------4444-6666-8888--9999-8888-6666-4444-------3333-4444-6666-+
E----------------------6666--------------------------------------4444----------------+

CHORUS2
G------------------------------------------------------------------------------------+
D------6666-4444-3344----------------------------------------------------------------+
A-4444----------------------8888-6666-4444--9999-8888-6666-4444-------3333-4444-6666-+
E----------------------6666--------------------------------------4444----------------+

CHORUS3
G------------------------------------------------------------------------------------+
D------3333-4444-6666----------------------------------------------------------------+
A-4444----------------------8888-6666-4444--9999-8888-6666-4444-------3333-4444-6666-+
E----------------------6666--------------------------------------4444----------------+

Then play CHORUS X2 (during fade out)
            
Submit corrections

comments powered by Disqus
↑ Back to top | Me First And The Gimme Gimmes Bass for It's Raining On Prom Night. Lyrics for acoustic guitar and electric guitar. Tablatures and chords are parodies/interpretations of the original songs. You may use it for private study, scholarship, research or language learning purposes only