» » »

Im So In Love With You Honey Tabs (ver.1)

Artists:  A B C D E F G H I J K L M N O P Q R S T U V W X Y Z # 

Im So In Love With You Honey Tabs (ver.1)

Me First And The Gimme Gimmes
Rating:
0/5 (0 votes)

Hard to play? Try these video lessons and learn fast.
                i'm so in love with you honey


me first and the gimmie gimmies





pm...     . .    . .    . .    . .    . .   .
e:-------------------------------------------------|
B:-------------------------------------------------|
G:-----8------8------8------8------8------8----8-8-|
D:-----8------8------8------8------8------8----8-8-|
A:-6-6-6--6-6-6--6-6-6--6-6-6--6-6-6--6-6-6--6-6-6-|
E:-------------------------------------------------|

 pm. .    . .    .  . .    . .    . .    . .    . .    . .             .......   ..    ..
e:-----------------------------------------------------------------------------------------|
B:-----------------------------------------------------------------------------------------|
G:-----8------8---------6------6------5------5------5------5--5-5-5------------------------|
D:-----8------8---------6------6------5------5------5------5--5-5-5--3---------3-----3---3-|
A:-6-6-6--6-6-6--6--4-4-4--4-4-4--4-3-3--3-3-3--3-3-3--3-3-3--3-3-3--3---------3-----3---3-|
E:-------------------------------------------------------------------1-1-1-1-1-1-1-1-1-1-1-|
             ......   ...   .
e:-------------------------------------|
B:-------------------------------------|
G:--------3---------3-----3---3--3-3-3-|
D:-3-3-3--3---------3-----3---3--3-3-3-|
A:-3-3-3--1-1-1-1-1-1-1-1-1-1-1--1-1-1-|
E:-1-1-1-------------------------------|

 pm. .    . .    .  . .    . .    . .    . .    . .    . .             .......   ..    ..
e:-----------------------------------------------------------------------------------------|
B:-----------------------------------------------------------------------------------------|
G:-----8------8---------6------6------5------5------5------5--5-5-5------------------------|
D:-----8------8---------6------6------5------5------5------5--5-5-5--3---------3-----3---3-|
A:-6-6-6--6-6-6--6--4-4-4--4-4-4--4-3-3--3-3-3--3-3-3--3-3-3--3-3-3--3---------3-----3---3-|
E:-------------------------------------------------------------------1-1-1-1-1-1-1-1-1-1-1-|

             ......   ...   .           pick slide
e:--------------------------------------------------|
B:--------------------------------------------------|
G:--------3---------3-----3---3--3-3-3--------------|
D:-3-3-3--3---------3-----3---3--3-3-3--------------|
A:-3-3-3--1-1-1-1-1-1-1-1-1-1-1--1-1-1--x/----------|
E:-1-1-1--------------------------------x/----------|

even thou i aint got money i still in love with u honey...
e:--------------------------------------------------|
B:--------------------------------------------------|
G:---------------3-3-3-3-3-3--8-8--7-7--5-5-5-5-5-5-|
D:-3-3-3-3-3-3-3-3-3-3-3-3-3--8-8--7-7--5-5-5-5-5-5-|
A:-3-3-3-3-3-3-3-1-1-1-1-1-1--6-6--5-5--3-3-3-3-3-3-|
E:-1-1-1-1-1-1-1------------------------------------|

  and the more when i arrive bring tears joy thru my eyes...
e:----------------------------------------------------------------|
B:----------------------------------------------------------------|
G:---------------3-3-3-3-3-3--8-8-8-8-8-8-6-6-6-6-6-6-5-5-5-5-5-5-|
D:-3-3-3-3-3-3-3-3-3-3-3-3-3--8-8-8-8-8-8-6-6-6-6-6-6-5-5-5-5-5-5-|
A:-3-3-3-3-3-3-3-1-1-1-1-1-1--6-6-6-6-6-6-4-4-4-4-4-4-3-3-3-3-3-3-|
E:-1-1-1-1-1-1-1--------------------------------------------------|


 pm. .    . .    .  . .    . .    . .    . .    . .    . .             .......   ..    ..
e:-----------------------------------------------------------------------------------------|
B:-----------------------------------------------------------------------------------------|
G:-----8------8---------6------6------5------5------5------5--5-5-5------------------------|
D:-----8------8---------6------6------5------5------5------5--5-5-5--3---------3-----3---3-|
A:-6-6-6--6-6-6--6--4-4-4--4-4-4--4-3-3--3-3-3--3-3-3--3-3-3--3-3-3--3---------3-----3---3-|
E:-------------------------------------------------------------------1-1-1-1-1-1-1-1-1-1-1-|
             ......   ...   .
e:-------------------------------------|
B:-------------------------------------|
G:--------3---------3-----3---3--3-3-3-|
D:-3-3-3--3---------3-----3---3--3-3-3-|
A:-3-3-3--1-1-1-1-1-1-1-1-1-1-1--1-1-1-|
E:-1-1-1-------------------------------|

 pm. .    . .    .  . .    . .    . .    . .    . .    . .             .......   ..    ..
e:-----------------------------------------------------------------------------------------|
B:-----------------------------------------------------------------------------------------|
G:-----8------8---------6------6------5------5------5------5--5-5-5------------------------|
D:-----8------8---------6------6------5------5------5------5--5-5-5--3---------3-----3---3-|
A:-6-6-6--6-6-6--6--4-4-4--4-4-4--4-3-3--3-3-3--3-3-3--3-3-3--3-3-3--3---------3-----3---3-|
E:-------------------------------------------------------------------1-1-1-1-1-1-1-1-1-1-1-|

             ......   ...   .           pick slide
e:--------------------------------------------------|
B:--------------------------------------------------|
G:--------3---------3-----3---3--3-3-3--------------|
D:-3-3-3--3---------3-----3---3--3-3-3--------------|
A:-3-3-3--1-1-1-1-1-1-1-1-1-1-1--1-1-1--x/----------|
E:-1-1-1--------------------------------x/----------|

even thou i aint got money i still in love with u honey...
e:--------------------------------------------------|
B:--------------------------------------------------|
G:---------------3-3-3-3-3-3--8-8--7-7--5-5-5-5-5-5-|
D:-3-3-3-3-3-3-3-3-3-3-3-3-3--8-8--7-7--5-5-5-5-5-5-|
A:-3-3-3-3-3-3-3-1-1-1-1-1-1--6-6--5-5--3-3-3-3-3-3-|
E:-1-1-1-1-1-1-1------------------------------------|

  and the more when i arrive bring tears joy thru my eyes...
e:----------------------------------------------------------------|
B:----------------------------------------------------------------|
G:---------------3-3-3-3-3-3--8-8-8-8-8-8-6-6-6-6-6-6-5-5-5-5-5-5-|
D:-3-3-3-3-3-3-3-3-3-3-3-3-3--8-8-8-8-8-8-6-6-6-6-6-6-5-5-5-5-5-5-|
A:-3-3-3-3-3-3-3-1-1-1-1-1-1--6-6-6-6-6-6-4-4-4-4-4-4-3-3-3-3-3-3-|
E:-1-1-1-1-1-1-1--------------------------------------------------|

e:-------------------------------------|
B:-------------------------------------|
G:--------3---------3-----3---3--3-3-3-|
D:-3-3-3--3---------3-----3---3--3-3-3-|
A:-3-3-3--1-1-1-1-1-1-1-1-1-1-1--1-1-1-|
E:-1-1-1-------------------------------|


 pm. .    . .    .  . .    . .    . .    . .    . .    . .             .......   ..    ..
e:-----------------------------------------------------------------------------------------|
B:-----------------------------------------------------------------------------------------|
G:-----8------8---------6------6------5------5------5------5--5-5-5------------------------|
D:-----8------8---------6------6------5------5------5------5--5-5-5--3---------3-----3---3-|
A:-6-6-6--6-6-6--6--4-4-4--4-4-4--4-3-3--3-3-3--3-3-3--3-3-3--3-3-3--3---------3-----3---3-|
E:-------------------------------------------------------------------1-1-1-1-1-1-1-1-1-1-1-|
             ......   ...   .
e:-------------------------------------|
B:-------------------------------------|
G:--------3---------3-----3---3--3-3-3-|
D:-3-3-3--3---------3-----3---3--3-3-3-|
A:-3-3-3--1-1-1-1-1-1-1-1-1-1-1--1-1-1-|
E:-1-1-1-------------------------------|

 pm. .    . .    .  . .    . .    . .    . .    . .    . .             .......   ..    ..
e:-----------------------------------------------------------------------------------------|
B:-----------------------------------------------------------------------------------------|
G:-----8------8---------6------6------5------5------5------5--5-5-5------------------------|
D:-----8------8---------6------6------5------5------5------5--5-5-5--3---------3-----3---3-|
A:-6-6-6--6-6-6--6--4-4-4--4-4-4--4-3-3--3-3-3--3-3-3--3-3-3--3-3-3--3---------3-----3---3-|
E:-------------------------------------------------------------------1-1-1-1-1-1-1-1-1-1-1-|

             ......   ...   .           pick slide
e:--------------------------------------------------|
B:--------------------------------------------------|
G:--------3---------3-----3---3--3-3-3--------------|
D:-3-3-3--3---------3-----3---3--3-3-3--------------|
A:-3-3-3--1-1-1-1-1-1-1-1-1-1-1--1-1-1--x/----------|
E:-1-1-1--------------------------------x/----------|

even thou i aint got money i still in love with u honey...
e:--------------------------------------------------|
B:--------------------------------------------------|
G:---------------3-3-3-3-3-3--8-8--7-7--5-5-5-5-5-5-|
D:-3-3-3-3-3-3-3-3-3-3-3-3-3--8-8--7-7--5-5-5-5-5-5-|
A:-3-3-3-3-3-3-3-1-1-1-1-1-1--6-6--5-5--3-3-3-3-3-3-|
E:-1-1-1-1-1-1-1------------------------------------|

  and the more when i arrive bring tears joy thru my eyes...
e:----------------------------------------------------------------|
B:----------------------------------------------------------------|
G:---------------3-3-3-3-3-3--8-8-8-8-8-8-6-6-6-6-6-6-5-5-5-5-5-5-|
D:-3-3-3-3-3-3-3-3-3-3-3-3-3--8-8-8-8-8-8-6-6-6-6-6-6-5-5-5-5-5-5-|
A:-3-3-3-3-3-3-3-1-1-1-1-1-1--6-6-6-6-6-6-4-4-4-4-4-4-3-3-3-3-3-3-|
E:-1-1-1-1-1-1-1--------------------------------------------------|

e:-------------------------------------|
B:-------------------------------------|
G:--------3---------3-----3---3--3-3-3-|
D:-3-3-3--3---------3-----3---3--3-3-3-|
A:-3-3-3--1-1-1-1-1-1-1-1-1-1-1--1-1-1-|
E:-1-1-1-------------------------------|

e:--------------------------------------------------|
B:--------------------------------------------------|
G:-8--8-8-8-8-8--8--8-8-8-8-8--8--8-8-8-8-8--8-8-8/-|
D:-8--8-8-8-8-8--8--8-8-8-8-8--8--8-8-8-8-8--8-8-8/-|
A:-6--6-6-6-6-6--6--6-6-6-6-6--6--6-6-6-6-6--6-6-6/-|
E:--------------------------------------------------|
            
Hard to play? Try these video lessons and learn fast. | Correct




comments powered by Disqus
↑ Back to top | Tablatures and chords are parodies/interpretations of the original songs. You may use it for private study, scholarship, research or language learning purposes only