» » »

Me First And The Gimme Gimmes, I Get Around Bass tabs (ver.1)

Artists:  A B C D E F G H I J K L M N O P Q R S T U V W X Y Z # 

I Get Around Bass tabs (ver.1)

Me First And The Gimme Gimmes Tabs
 Rating:
4/5 (4 votes)
I Get Around lessons Tabs too difficult? Try these video lessons and learn fast
                
Chorus
G:----------------------------------|
D:----------------------------------|
A:---------7~~~---------------------|x1
E:-3~~~------------5~~~----1~~~-----|

G:------------------------------------------------------------------|
D:------------------------------------------------------------------|
A:-----------------7777777777777777------------------------55555555-|x1
E:-3333333333333333----------------555555555555555511111111---------|

Verse
G:-------------------------------------------------9-------|
D:------------------------------------------9---129-12~----|
A:-----5555--555555----5555--55555510-121012--10-----------|x1
E:-5555----55------5555----55------------------------------|

G:----------------------------------|
D:----------------------------------|
A:-----5555--555555----5555--555555-|x1
E:-5555----55------5555----55-------|

Chorus 2
G:------------------------------------------------------------------|
D:------------------------------------------------------------------|
A:-----------------7777777777777777------------------------55555555-|x1
E:-3333333333333333----------------555555555555555511111111---------|

Repeat:
Verse

Chorus 3
G:------------------------------------------------------------------|
D:------------------------------------------------------------------|
A:-----------------7777777777777777---------------------------------|x1
E:-3333333333333333----------------55555555555555551111111111111111-|

Bridge
G:----------------------------------------------------------------------------------|
D:----------------------------------------------------------------------------------|
A:-7777777777777777----------------5555555555555555----------------7777777788888888-|x1
E:-----------------5555555555555555----------------5555555555555555-----------------|

Verse 2
G:---------------------------------------------------10------|
D:------------------------------------------10---1310--13~---|
A:-----6666--666666----6666--66666611-131113---11------------|x1
E:-6666----66------6666----66--------------------------------|

G:----------------------------------|
D:----------------------------------|
A:-----6666--666666----6666--666666-|x1
E:-6666----66------6666----66-------|

Chorus 4
G:------------------------------------------------------------------|
D:------------------------------------------------------------------|
A:-----------------8888888888888888---------------------------------|x1
E:-4444444444444444----------------66666666666666662222222222222222-|

G:--------------------------------------------------|
D:--------------------------------------------------|
A:--------------------------------------------------|x1
E:-111111111111111111111111111111111111111111111111-|

Chorus 5
G:---------------------------------|
D:---------5~~~--------------------|
A:---------------------------------|x1
E:-6~~~------------8~~~----4~~~----|

G:------------------------------------------------------------------|
D:-----------------5555555555555555---------------------------------|
A:------------------------------------------------------------------|x1
E:-6666666666666666----------------88888888888888884444444444444444-|

G:----------------------|
D:----------------------|
A:----------------------|x1
E:-33333333333333338~---|
            
Submit corrections

comments powered by Disqus
↑ Back to top | Me First And The Gimme Gimmes Bass for I Get Around. Lyrics for acoustic guitar and electric guitar. Tablatures and chords are parodies/interpretations of the original songs. You may use it for private study, scholarship, research or language learning purposes only