» » »

Hello Bass tabs (ver.1)

Artists:  A B C D E F G H I J K L M N O P Q R S T U V W X Y Z # 

Hello Bass tabs (ver.1)

Me First And The Gimme Gimmes
Rating:
0/5 (0 votes)

Tabs too difficult? Try these video lessons and learn fast.
                
Intro(bass enters at 0:04)
G:----------------------------------|
D:-----------------3333333333333----|
A:---------33333333-------------333-|x2
E:-55555555-------------------------|

Verse 1
G:------------------------------------------------------------------|
D:-----------------3333333333333-------------------3333333333333----|
A:---------33333333-------------333-----------------------------333-|x1
E:-55555555------------------------5555555533333333-----------------|

G:----------------------------------|
D:-----------------3333333333333333-|
A:---------33333333-----------------|x1
E:-55555555-------------------------|

Chorus 1
G:------------------------------------------------------------------|
D:---------------------------------------55--------------33---------|
A:---------------------------------555555----------333333-----------|x1
E:-55555555333333331111111155555555--------33333333--------11111111-|

G:------------------------------------------------------------------|
D:-------11--------------------2-22------55--------------33---------|
A:-111111--------------2-223-33----555555----------333333-----------|x1
E:---------0-3-0-3-5-55--------------------33333333--------11111111-|

G:------------------------------------------------------|
D:-------11---------------------------------------------|
A:-111111-----------------------------------------------|x1
E:---------0~~~-------------------------------------3/5-|

Verse 2
G:------------------------------------------------------------------|
D:-----------------3333333333333-------------------3333333333333----|
A:---------33333333-------------333-----------------------------333-|x1
E:-55555555------------------------5555555533333333-----------------|

G:----------------------------------|
D:-----------------333333333--------|
A:---------33333333-----------------|x1
E:-55555555-------------------------|

Chorus 2
G:------------------------------------------------------------------|
D:---------------------------------------55--------------33---------|
A:---------------------------------555555----------333333-----------|x1
E:-55555555333333331111111155555555--------33333333--------11111111-|

G:------------------------------------------------------------------|
D:-------11--------------------2-22------55--------------33---------|
A:-111111--------------2-223-33----555555----------333333-----------|x1
E:---------0-3-0-3-5-55--------------------33333333--------11111111-|

G:------------------------------------------------------|
D:-------11---------------------------------------------|
A:-111111-----------------------------------------------|x1
E:---------0~~~-----------------------------------------|

Solo
Verse 2
G:------------------------------------------------------------------|
D:-----------------3333333333333-----------555555553333333333333----|
A:---------33333333-------------333-----------------------------333-|x1
E:-55555555------------------------55555555-------------------------|

G:----------------------------------|
D:-----------------3333333333333----|
A:---------33333333-------------333-|x1
E:-55555555-------------------------|

Chorus 3
G:------------------------------------------------------------------|
D:---------555555553333333377777777------55--------------33---------|
A:---------------------------------555555----------333333-----------|x1
E:-55555555--------------------------------33333333--------11111111-|

G:------------------------------------------------------------------|
D:-------11--------------------2-22------55--------------33---------|
A:-111111--------------2-223-33----555555----------333333-----------|x1
E:---------0-3-0-3-5-55--------------------33333333--------11111111-|

G:------------------------------------------------------|
D:-------11---------------------------------------------|
A:-111111-----------------------------------------------|x1
E:---------0~~~-----------------------------------------|
            
Tabs too difficult? Try these video lessons and learn fast.




comments powered by Disqus
↑ Back to top | Tablatures and chords are parodies/interpretations of the original songs. You may use it for private study, scholarship, research or language learning purposes only