» » »

Hello Tabs (ver.1)

Artists:  A B C D E F G H I J K L M N O P Q R S T U V W X Y Z # 

Hello Tabs (ver.1)

Me First And The Gimme Gimmes
Rating:
5/5 (1 vote)

Hard to play? Try these video lessons and learn fast.
                Standard Tuning

Intro:                             2x
e|-----------------------------| e|------------------------------------|
B|-----------------------------| B|------------------------------------|
G|-----------------------------| G|-2222222-55555555---------------555-|
D|-7-777777-7-777777-777777-7\-| D|-2222222-55555555-3333333333333-555-|
A|-7-777777-7-777777-777777-7\-| A|-0000000-33333333-3333333333333-333-|
E|-5-555555-5-555555-555555-5\-| E|------------------1111111111111-----|
                            ps
Verse:
e|-----------------------------------------------------------------------|
B|-----------------------------------------------------------------------|
G|-2222222-55555555---------------555-2222222------------------------555-|
D|-2222222-55555555-3333333333333-555-2222222-55555555-3333333333333-555-|
A|-0000000-33333333-3333333333333-333-0000000-55555555-3333333333333-333-|
E|------------------1111111111111-------------33333333-1111111111111-----|

e|-----------------------------------------------------------------------|
B|-----------------------------------------------------------------------|
G|-2222222-55555555------------------------------------------------------|
D|-2222222-55555555-3333333333333333-------------------------------------|
A|-0000000-33333333-3333333333333333-------------------------------------|
E|------------------1111111111111111-------------------------------------|

Pre-Chorus:
e|-----------------------------------------------------------------------|
B|-----------------------------------------------------------------------|
G|-2222222-------------------22222222------------------------------------|
D|-2222222-55555555-33333333-22222222------------------------------------|
A|-0000000-55555555-33333333-00000000------------------------------------|
E|---------33333333-11111111---------------------------------------------|

Chorus:
e|-----------------------------------------------------------------------|
B|-----------------------------------------------------------------------|
G|-77777777----------55555555----------33333333----------22-44-55-77-----|
D|-77777777-55555555-55555555-33333333-33333333-22222222-22-44-55-77-----|
A|-55555555-55555555-33333333-33333333-11111111-22222222-00-22-33-55-----|
E|----------33333333----------11111111----------00000000-----------------|

e|------------------------------------------------------Build back into--|
B|-------------------------------------------------------the 2nd verse---|
G|-77777777----------55555555----------33333333------------on this A-----|
D|-77777777-55555555-55555555-33333333-33333333-2------2222222222222222--|
A|-55555555-55555555-33333333-33333333-11111111-2------2222222222222222--|
E|----------33333333----------11111111----------0------0000000000000000--|

2nd Verse:
e|-----------------------------------------------------------------------|
B|-----------------------------------------------------------------------|
G|-2222222-55555555---------------555-2222222------------------------555-|
D|-2222222-55555555-3333333333333-555-2222222-55555555-3333333333333-555-|
A|-0000000-33333333-3333333333333-333-0000000-55555555-3333333333333-333-|
E|------------------1111111111111-------------33333333-1111111111111-----|

e|-----------------------------------------------------------------------|
B|-----------------------------------------------------------------------|
G|-2222222-55555555------------------------------------------------------|
D|-2222222-55555555-33333333---------------------------------------------|
A|-0000000-33333333-33333333---------------------------------------------|
E|------------------11111111---------------------------------------------|

Pre-Chorus:
e|-----------------------------------------------------------------------|
B|-----------------------------------------------------------------------|
G|-2222222-------------------22222222------------------------------------|
D|-2222222-55555555-33333333-22222222------------------------------------|
A|-0000000-55555555-33333333-00000000------------------------------------|
E|---------33333333-11111111---------------------------------------------|

Chorus:
e|-----------------------------------------------------------------------|
B|-----------------------------------------------------------------------|
G|-77777777----------55555555----------33333333----------22-44-55-77-----|
D|-77777777-55555555-55555555-33333333-33333333-22222222-22-44-55-77-----|
A|-55555555-55555555-33333333-33333333-11111111-22222222-00-22-33-55-----|
E|----------33333333----------11111111----------00000000-----------------|

e|------------------------------------------------------Build-into-Solo--|
B|-------------------------------------------------------using triplets--|
G|-77777777----------55555555----------33333333--------------------------|
D|-77777777-55555555-55555555-33333333-33333333-2------222-222-222-222---|
A|-55555555-55555555-33333333-33333333-11111111-2------222-222-222-222---|
E|----------33333333----------11111111----------0------000-000-000-000---|

Play verse chords under solo:
e|-----------------------------------------------------------------------|
B|-----------------------------------------------------------------------|
G|-2222222-55555555---------------555-2222222------------------------555-|
D|-2222222-55555555-3333333333333-555-2222222-55555555-3333333333333-555-|
A|-0000000-33333333-3333333333333-333-0000000-55555555-3333333333333-333-|
E|------------------1111111111111-------------33333333-1111111111111-----|

e|-----------------------------------------------------------------------|
B|-----------------------------------------------------------------------|
G|-2222222-55555555---------------555------------------------------------|
D|-2222222-55555555-3333333333333-555------------------------------------|
A|-0000000-33333333-3333333333333-333------------------------------------|
E|------------------1111111111111----------------------------------------|

Pre-Chorus:
e|-----------------------------------------------------------------------|
B|-----------------------------------------------------------------------|
G|-2222222-------------------22222222------------------------------------|
D|-2222222-55555555-33333333-22222222------------------------------------|
A|-0000000-55555555-33333333-00000000------------------------------------|
E|---------33333333-11111111---------------------------------------------|

Chorus:
e|-----------------------------------------------------------------------|
B|-----------------------------------------------------------------------|
G|-77777777----------55555555----------33333333----------22-44-55-77-----|
D|-77777777-55555555-55555555-33333333-33333333-22222222-22-44-55-77-----|
A|-55555555-55555555-33333333-33333333-11111111-22222222-00-22-33-55-----|
E|----------33333333----------11111111----------00000000-----------------|

e|-----------------------------------------------------------------------|
B|-----------------------------------------------------------------------|
G|-77777777----------55555555----------33333333--------------------------|
D|-77777777-55555555-55555555-33333333-33333333-2------------------------|
A|-55555555-55555555-33333333-33333333-11111111-2------------------------|
E|----------33333333----------11111111----------0------------------------|

Alright all, that's it. I'll try to get the solo tabbed shortly. Please send 

Later,
Dave
            
Hard to play? Try these video lessons and learn fast. | Correct




comments powered by Disqus
↑ Back to top | Tablatures and chords are parodies/interpretations of the original songs. You may use it for private study, scholarship, research or language learning purposes only