» » »

Me First And The Gimme Gimmes, Goodbye Earl Bass tabs (ver.1)

Artists:  A B C D E F G H I J K L M N O P Q R S T U V W X Y Z # 

Goodbye Earl Bass tabs (ver.1)

Me First And The Gimme Gimmes Tabs
Rating:
5/5 (2 votes)
Goodbye Earl lessons Tabs too difficult? Try these video lessons and learn fast
                Band: me first and the gimme gimmes

Pplease rate

Intro (0:13)

G|-----------------------------------------------------------------|
D|-7-7-------------7-7-------------7-7-----------------------------| 
A|-----------------------------------------------------------------|
E|-----------------------------------------------------------------|

Verse: (0:24)

G|-----------------------------------------------------------------|
D|-----------------------------------------------------------------| 
A|-----------------5-5-5-5-5-5-5-5-----------------7-7-7-7-7-7-7-7-|
E|-5-5-5-5-5-5-5-5-----------------5-5-5-5-5-5-5-5-----------------|

G|-----------------------------------------------------------------|
D|-----------------------------------------------------------------| 
A|-----------------5-5-5-5-5-5-5-5---------------------------------|
E|-5-5-5-5-5-5-5-5-----------------5-5-5-5-0-0-0-0-5-5-5-5-5-5-5-5-|

G|-----------------------------------------------------------------|
D|-7-7-7-7-7-7-7-6-7-7-7-7-7-7-7-6-7-7-7-7-7-7-7-7-6-6-6-6-6-6-6-6-| 
A|-----------------------------------------------------------------|
E|-----------------------------------------------------------------|

G|-----------------------------------------------------------------|
D|-----------------------------------------------------------------| 
A|-----------------5-5-5-5-5-5-5-5---------------------------------|
E|-5-5-5-5-5-5-5-5-----------------5-5-5-5-0-0-0-0-5-5-5-5-5-5-5-5-|

Pre-chorus 1: (0:47)

G|-----------------------------------------------------------------|
D|-------------------------------------------------7-7-7-7-7-7-7-7-| 
A|-9---9-9-9-9-9-9-7---7-7-7-7-7-7-5---5-5-5-5-5-5-----------------|
E|-----------------------------------------------------------------|

G|-----------------------------------------------------------------|
D|-----------------------------------------------------------------| 
A|-9---9-9-9-9-9-9-7---7-7-7-7-7-7-5---5-5-5-5-5-5-----------------|
E|-----------------------------------------------------------------|

Chorus (0:58) x2

G|-----------------------------------------------------------------|
D|-----------------------------------------------------------------| 
A|-----------------5---5-5-------------------------5-5-5-5-5-5-5-5-|
E|-5---5-5-5-5-5-5---------5---5-5-0---0-0-0-0-0-0-----------------|

Then repeat: 

Verse (1:12)

Pre-chorus 2 (1:35)

G|-----------------------------------------------------------------|
D|---------7-7-6-6-------------------------------------------------| 
A|-----9999--------7-7-----------------55557-7-5-5-----------------|
E|-------------------------------------------------5-5-------------|

G|-----------------------------------------------------------------|
D|---------7-7-6-6-------------------------------------------------| 
A|-----9999--------7-7-------------5-5-5-5-5-5-5-5-5-5-5-5-5-5-5-5-|
E|-----------------------------------------------------------------|

Then repeat:

Chorus (1:46) x4

End note:

G|----|
D|----| 
A|----|
E|-5~-|
            
Submit corrections

comments powered by Disqus
↑ Back to top | Me First And The Gimme Gimmes Bass for Goodbye Earl. Lyrics for acoustic guitar and electric guitar. Tablatures and chords are parodies/interpretations of the original songs. You may use it for private study, scholarship, research or language learning purposes only